Song name
# A B C D E F G H I J K L M N O P Q R S T U V W X Y Z

Heavy Heavy Low Low - Inhalant Abuse tab

Song Name: Inhalant Abuse
Artist: HeavyHeavy LowLow (HHLL).... NUGZZ
Album: ...Fuck it?!

ok so here is my second tab. there is one part im not so sure on and thats the section 
the "im fuckin your secretary", with the sliding and shit. but im pretty sure i got this 
pretty good.

Tuning: Dadgbe

Legend: h= hammer on
        t= tremelo
        pm= palm mute
Intro:

e------------------------------------------------------------------------------|
B--7-------------7--------7--7------------7--------7---------------------------|
G--10------------10-------10-10-----------10-------10--------------------------|
D-----8h9-8h9-------8h9---------8h9-8h9------8h9-------------------------------|
A------------8h9-------8h9-------------8h9------8h9----------------------------|
D------------------------------------------------------------------------------|

Breakdown into Verse (CAPTAIN!):

e------------------------------------------------------------------------------|
B------------------------------------------------------------------------------|
G------------------------------------------------------------------------------|
D-000-000-000-000-00000000-0t--------------------------------------------------|
A-000-000-000-000-00000000-0t--------------------------------------------------|
D-000-000-000-000-00000000-0t--------------------------------------------------|
 (pm)

Verse:

e----------------------------------------------------------------------------|
B-7-------------7--------7--7------------7--------7--7-------------7---------|
G-10------------10-------10-10-----------10-------10-10------------10--------|
D----8h9-8h9-------8h9---------8h9-8h9------8h9---------8h9-8h9-------8h9----|
A-----------8h9-------8h9-------------8h9------8h9-------------8h9-------8h9-|
D----------------------------------------------------------------------------|

e----------------------------------------------------------------------------|
B-7--7--7------------7--------7--7--7--7--7--7-------------------------------|
G-10-10-10-----------10-------10-10-10-10-10-10------------------------------|
D----------8h9-8h9------8h9--------------------------------------------------|
A-----------------8h9------8h9-----------------------------------------------|
D----------------------------------------------------------------------------|

High Hats roll...

Same Verse, Second Part (If you write, in binary long enough...):

e----------------------------------------------------------------------------|
B----------------------------------------------------------------------------|
G----------------------------------------------------------------------------|
D-8-5-55-4h5-----------------------------------------------------------------|
A------------4h5-(x 4)-------------------------------------------------------|
D----------------------------------------------------------------------------|

Breakdown (youre libel, to lose your penmanship):

e----------------------------------------------------------------------------|
B----------------------------------------------------------------------------|
G----------------------------------------------------------------------------|
D-1-0-1-4-3-0-1-0-1-0-1-4-3--------------------------------------------------|
A-1-0-1-4-3-0-1-0-1-0-1-4-3--------------------------------------------------|
D-1-0-1-4-3-0-1-0-1-0-1-4-3--------------------------------------------------|

repeat the beginning part of the second of the verse (two above) 7 times.

Breakdown:

e----------------------------------------------------------------------------|
B----------------------------------------------------------------------------|
G----------------------------------------------------------------------------|
D-1-0-1-4-3------------------------------------------------------------------|
A-1-0-1-4-3-(x 4)------------------------------------------------------------|
D-1-0-1-4-3------------------------------------------------------------------|

then do open palm mutes and slides with the strings. i just dont know this part its hard 
hear. just listen to the song and ull know what im talking about.

Outro:

e----------------------------------------------------------------------------|
B-------7--------7------7----------------------------------------------------|
G-------10-------10-----10---------------------------------------------------|
D-0-0-0----0-0000---0-0---------( x 4)---------------------------------------|
A-0-0-0----0-0000---0-0------------------------------------------------------|
D-0-0-0----0-0000---0-0------------------------------------------------------|
Tap to rate this tab
 
# A B C D E F G H I J K L M N O P Q R S T U V W X Y Z