Song name
# A B C D E F G H I J K L M N O P Q R S T U V W X Y Z

Heavy Heavy Low Low - Theres A Bat tab

Tabbed by:BABf 121
Email:c.s740@yahoo.com
-------------------------------------------------------------------------------
			     There's A Bat - Heavy Heavy Low Low
-------------------------------------------------------------------------------
Tuning:drop d

ok ok ok the only other tab on here is kinda wrong so i got motivated to do it my self i 
have a really good mall nutrition with the right little slidey thing at the end ill put 
one up soon too

any ways rate it comment it use it. hah yey faven
email me or message me on myspace if you have any questions

[myspace.com/a7x1]


e|---------------------------------------------------------------------------|
B|--------8-7-8---------11-10-11-12-11-12-14---------------------------------|
G|--------9-8-9---------12-11-12-13-12-13-15---------------------------------|
D|0-0-00---------0-0-00-----------------------------{x2}---------------------|
A|0-0-00---------0-0-00------------------------------------------------------|
D|0-0-00---------0-0-00------------------------------------------------------|

e|---------------------------------------------------------------------------|
B|---------------------8-8---11-11--------------------11--11-----------------|
G|---------------------9-9---12-12--------------------12--12-----------------|
D|0-0-0-0-0-0-0-0--------------------0-0-0-0-0-0-0-0----------12/5----[x2]---|
A|0-0-0-0-0-0-0-0--------------------0-0-0-0-0-0-0-0----------12/5-----------|
D|0-0-0-0-0-0-0-0--------------------0-0-0-0-0-0-0-0----------12/5-----------|


[ohmy ohmy  oh my  word]this parts a bit tricky to figure out jes play along youll get it
e|-------------------------------------------------------------------------|
B|-------------------------------------------------------------------------|
G|-------------------------------------------------------------------------|
D|3/7-3/7-3/7-3/7--12-12-12-12-12-12-------[x4]----------------------------|
A|3/7-3/7-3/7-3/7--12-12-12-12-12-12---------------------------------------|
D|3/7-3/7-3/7-3/7--12-12-12-12-12-12---------------------------------------|

e|-------------------------------------------------------------------------|
B|--------12-14-12---------12-14-12---------12-14-12-[like 10x i think]----|
G|10-12-13---------10-12-13---------10-12-13-------------------------------|
D|-------------------------------------------------------------------------|
A|-------------------------------------------------------------------------|
D|-------------------------------------------------------------------------|

the little virbrato signs are intended for the "5" power chord just  just bend the top 2 
down slowly. it has kind of a southern sound
e|----------------------------------------------------------------------------|
B|----------------------------------------------------------------------------|
G|----------------------------------------------------------------------------|
D|0-0-0-5-0-0-0-5-0-0-0-5--0-0-0-0-0------------------------------------------|
A|0-0-0-5-0-0-0-5-0-0-0-5--0-0-0-0-0------[x4]--------------------------------|
D|0-0-0-5-0-0-0-5-0-0-0-5--0-0-0-0-0------------------------------------------|
        ~       ~       ~
e|--------------------------------------------------------------|
B|-------9-10-9--------11-10-11--------9-10-9--------11-10-11---|
G|------12-13-12-------14-13-14-------12-13-12-------14-13-14---|[x2]
D|--00~------------00-------------00--------------00------------|
A|--00-------------00------------ 00--------------00------------|
D|--00-------------00-------------00--------------00------------|

| /  slide up
| \  slide down
| h  hammer-on
| p  pull-off
| -------------------------------------------------------------------------------
			     SONG NAME - Band Name
Tap to rate this tab
 
# A B C D E F G H I J K L M N O P Q R S T U V W X Y Z