Song name
# A B C D E F G H I J K L M N O P Q R S T U V W X Y Z

Heavy Jelly - I Keep Singing That Same Old Song tab

Heavy Jelly "I keep singing that same old song", 7" single from 1969.
Tabbed by Anders Pedersen (mc_nyregrus@hotmail.com)


: = Repeat between the two : signs.


Verse:
Piano arranged for guitar:
Riff A
|----------------|
|----------------|
|----------------|
|----------------|
|----------7-----|
|5-7-8-7-8---7-8-|


Verse played with lick a:
|--------------------------------|
|--------5-------3-------5-6-5---|
|2-------------------------------|
|--------------------------------|
|--------------------------------|
|--------------------------------|


Pre-chorus ("Must I keep remembering..."):
Riff B
|-----------------------|
|-----------------------|
|.---------------------.|
|.------10----10-9----9.|
|7----7-8-----8--7----7-|
|5----5-----------------|
                Play x 2


Chorus ("I keep singing that same old song...")
Riff C
|--------------|
|--------------|
|.------------.|
|.5-5-7-7-----.|
|-3-3-5-5-5----|
|---------3----|
        Play x 3

Transition-chord to next verse:

|-----|
|-----|
|-----|
|-----|
|2----|
|0----|

Repeat verse, pre-chorus, chorus, transition-chord and then:

Transition riff:
Riff D
|-----------------|
|-----------------|
|.---------------.|
|.2---0-2-----0-2.|
|---2-------2-----|
|-----------------|
          Play x 2

Then:
|-------------------------------|
|-------------------------------|
|.-----------------------------.|
|.2-2---5-5---7-7---5-5---7-7-5.|
|-0-0---3-3---5-5---3-3---5-5-3-|
|-------------------------------|
                         Play 6x (with guitar solo on top)

Then:
Riff E
|-------------------------------|-------------------------------|
|-------------------------------|-------------------------------|
|-------------------------------|-------------------------5-5-4-|
|-2-2---5-5---7-7---5-5---7-7-5-|-2-2---5-5---7-7---5-5---3-3-2-|
|-0-0---3-3---5-5---3-3---5-5-3-|-0-0---3-3---5-5---3-3---------|
|-------------------------------|-------------------------------| continues...

|-----------------------------------------------------------|
|-----------------------------------------------------------|
|4-4---7-7---6-6---2-2---6-6-4---------4-4---2-2------------|
|2-2---5-5---4-4---0-0---4-4-2---5-5---2-2---0-0---------2--|
|--------------------------------3-3---------------5-5---0--|
|--------------------------------------------------3-3------|
                                               End of Riff E

Then:
Verse
Pre-chorus
Chorus
Riff D (Transition riff) x 4 (in all)
Chorus
Riff D (Transition riff) x 4 (in all)
Then repeat Riff E 'til infinity (or at least until the song fades).
The end.
Tap to rate this tab
# A B C D E F G H I J K L M N O P Q R S T U V W X Y Z