Song name
# A B C D E F G H I J K L M N O P Q R S T U V W X Y Z

Heavy Trevy - Later tab

Later
Intro
E|----------------------------------------------------------------||
B|----------------------------------------------------------------||
G|---6-----6----6----6----6----6----------------------------------||
D|--6-6---6-6--6-6--6-6--6-6--6-6---------------------------------||
A|-4-----4----4----4----4----4------------------------------------||
E|----------------------------------------------------------------||
keep doin that then:
Chorus (part one) X2
E|------------------------------------------------||
B|------------------------------------------------||
G|-66---------------------------------------------||
D|-66-66-8-8-8-8--4-4-4-4-------------------------||
A|-44-66-8-8-8-8--4-4-4-4-------------------------||
E|----44-6-6-6-6--2-2-2-2-------------------------||
Chorus (part two)
E|--------------------------------||
B|--------------------------------||
G|-6666---------------------------||
D|-6666-6666-8888-4444------------||
A|-4444-6666-8888-4444------------||
E|------4444-6666-2222------------||
this is about it, the bridge is the same as the chorus (part one)
but with sone wierd notes in between chords.
the small solo i don't no either!
Tap to rate this tab
# A B C D E F G H I J K L M N O P Q R S T U V W X Y Z