Heavy Vegetable - Cotton Swab tab

-------------------------------------------------------------------------------
                            COTTON SWAB - Heavy Vegetable
-------------------------------------------------------------------------------
Tabbed by: Brian Rogers
Email: brian@ysib.com

Tuning: 6 string standard

Verse 1 (0:00)

e|------------------------| }
B|------------------------| }
G|------------------------| } (x 2)
D|0-0-0-0-0-0-0-0-0-0-0-0-| }
A|1-1-1-1-1-1-1-1-1-1-1-1-| }
E|------------------------| }
  PM.....................

e|------------------------|-------------------------|
B|------------------------|-------------------------|
G|------------------------|-------------------------|
D|0---0-0-----0-0-0-0-0-0-|0---0-0-----0-0----------|
A|1---1-1-----1-1-1-1-1-1-|1---1-1-----1-1----------|
E|--3-----3-3-------------|--3-----3-3-----2--2--2--|
  PM......................................

(x 2)

Pre-chorus 1 (0:16)

e|------------------------------|
B|------------------------------|
G|------7---------6---------4--/|
D|----0---------0---------0-----|
A|--5---------4---------2-------|
E|7---------6---------4---------|
  LR....... LR....... LR.......

e|----------------------------|
B|----------------------------|
G|----------2--/----------3---|
D|--------0-------------0-----|
A|------0-------------1-------|
E|7-7-2---------7-7-3---------|
  PM. LR....... PM. LR.......

(x 2)

Interlude 1 (0:27)

e|--------------------|--------------------| }
B|--------------------|--------------------| }
G|7-7-7-7---9-9-9-9---|--------------------| } (x 4)
D|7-7-7-7---9-9-9-9---|--------------------| }
A|5-5-5-5---7-7-7-7---|6-6-6-6---6-6-6-6---| }
E|--------------------|7-7-7-7---7-7-7-7---| }
  PM.......................................

Chorus 1 (0:42)

e|0---0------0-0---|--------0---0---| }
B|0---0------0-0---|0---0---0---0---| }
G|6---6------6-6---|4---4---5---5---| } (x 4)
D|7---7------7-7---|5---5---5---5---| }
A|0---0------0-0---|0---0---3---3---| }
E|--------9--------|3---5-----------| }
          LR.......

Verse 2 (0:56)

(Same as Verse 1)

Interlude 2 (1:13)

e|-----------------------|
B|-----------------------|
G|4-4-4-4-4--3-3----6-6--|
D|---------------4-------|
A|2-2-2-2-2--1-1----4-4--|
E|---------------2-------|

Pre-chorus 2 (1:15)

e|------------------------------------|
B|------------------------------------|
G|7-7-7-7-7-7-6-6-6-6-6-6-4-4-4-4-4-4-|
D|0-0-0-0-0-0-0-0-0-0-0-0-0-0-0-0-0-0-|
A|5-5-5-5-5-5-4-4-4-4-4-4-2-2-2-2-2-2-|
E|7-7-7-7-7-7-6-6-6-6-6-6-4-4-4-4-4-4-|
  PM.................................

e|--------------------------------|
B|--------------------------------|
G|----2-2-2-2-2-2-----3-3-3-3-3-3-|
D|----0-0-0-0-0-0-----0-0-0-0-0-0-|
A|----0-0-0-0-0-0-----1-1-1-1-1-1-|
E|7-7-2-2-2-2-2-2-7-7-3-3-3-3-3-3-|
  PM..............................

(x 2)

Interlude 3 (1:25)

e|---------------------------| }
B|---------------------------| }
G|9--9--9--11-11-11-13-13-13-| } (x 3)
D|---------12-12-12-14-14-14-| }
A|10-10-10-------------------| }
E|8--8--8--10-10-10-12-12-12-| }

Chorus 2 (1:29)

(Same as Chorus 1, except ending comes in during last bar)

Ending (1:44)

e|----|
B|----|
G|----|
D|----|
A|0-0-|
E|5-5-|

e|------------------| }
B|------------------| }
G|------------------| } (x 8)
D|0--------0--------| }
A|0----0-0-0----0-0-| }
E|3----5-5-3----5-5-| }

e|-------------|
B|-------------|
G|0------------|
D|0------------|
A|0------------|
E|3------------|
Tap to rate this tab
 
# A B C D E F G H I J K L M N O P Q R S T U V W X Y Z