Song name
# A B C D E F G H I J K L M N O P Q R S T U V W X Y Z

Hechizeros Band - El Sonidito tab

el sonidito


hechizeros band


TRANSCRIBED BY RUDY GUZMAN


guzman_84@hotmail.com





complaciendo para todos los bailadores con esta rola que dice

   un  dos tres cuatro
e:---------------------|
B:-1-------------------|
G:-0---2---------------|
D:-2---2----0----------|
A:-3---0----0----------|
E:----------3---0------|

  gt1
e:-20-20-20-20-20--20-20---20-20-20-20-20--20-20---20-20-20-20-20--20-20-|
B:-----------------------------------------------------------------------|
G:-----------------------------------------------------------------------|
D:-----------------------------------------------------------------------|
A:-----------------------------------------------------------------------|
E:-----------------------------------------------------------------------|

  gt2 Rhythm
 pm. .  . . .    . . .    . . .    . . .   . . .    . . .                                       
e:----------------------------------------------------------|
B:------------1--------1--------1--------1-------1--------1-|
G:-0-0--------0--------0--------0--------0-------0--------0-|
D:-2-2------2-2------2-2------2-2------2-2-----2-2------2-2-|
A:-3-3------3--------3--------3--------3-------3--------3---|
E:------3-0------3-0------3-0------3-0-----3-0------3-0-----|


eso  que barbaro que barbaro

  gt1
e:-20-20-20-20-20--20-20-20-20-20-20-20--20-20-20-20-20-20-20-20-20-|
B:------------------------------------------------------------------|
G:------------------------------------------------------------------|
D:------------------------------------------------------------------|
A:------------------------------------------------------------------|
E:------------------------------------------------------------------|


   un  dos tres cuatro
e:---------------------|
B:-1-------------------|
G:-0---2---------------|
D:-2---2----0----------|
A:-3---0----0----------|
E:----------3---0------|

  gt1
e:-20-20-20----17-----20-20-20----17-----20-20-20-----17----|
B:----------20----20-----------20----20------------20----20-|
G:----------------------------------------------------------|
D:----------------------------------------------------------|
A:----------------------------------------------------------|
E:----------------------------------------------------------|

  gt2 Rhythm
 pm. .  . . .    . . .    . . .    . . .   . . .    . . .                                       
e:----------------------------------------------------------|
B:------------1--------1--------1--------1-------1--------1-|
G:-0-0--------0--------0--------0--------0-------0--------0-|
D:-2-2------2-2------2-2------2-2------2-2-----2-2------2-2-|
A:-3-3------3--------3--------3--------3-------3--------3---|
E:------3-0------3-0------3-0------3-0-----3-0------3-0-----|


ah! esta es una buenisima rola

  gt1
e:-20-20-20-20-20--20-20-20-20-20-20-20--20-20-20-20-20-20-20-20-20-|
B:------------------------------------------------------------------|
G:------------------------------------------------------------------|
D:------------------------------------------------------------------|
A:------------------------------------------------------------------|
E:------------------------------------------------------------------|


   un  dos tres cuatro
e:---------------------|
B:-1-------------------|
G:-0---2---------------|
D:-2---2----0----------|
A:-3---0----0----------|
E:----------3---0------|

  gt1
e:-20-20-20----17-----20-20-20----17-----20-20-20-----17----|
B:----------20----20-----------20----20------------20----20-|
G:----------------------------------------------------------|
D:----------------------------------------------------------|
A:----------------------------------------------------------|
E:----------------------------------------------------------|

  gt2 Rhythm    eso eso eso
 pm. .  . . .    . . .    . . .    . . .   . . .    . . .                                       
e:----------------------------------------------------------|
B:------------1--------1--------1--------1-------1--------1-|
G:-0-0--------0--------0--------0--------0-------0--------0-|
D:-2-2------2-2------2-2------2-2------2-2-----2-2------2-2-|
A:-3-3------3--------3--------3--------3-------3--------3---|
E:------3-0------3-0------3-0------3-0-----3-0------3-0-----|


siganle bailando
  gt1
e:-20-20-20-20-20--20-20---20-20-20-20-20--20-20---20-20-20-20-20--20-20-|
B:-----------------------------------------------------------------------|
G:-----------------------------------------------------------------------|
D:-----------------------------------------------------------------------|
A:-----------------------------------------------------------------------|
E:-----------------------------------------------------------------------|

   mira que chulada de ambiente seguimos bailamos con esto que dice
e:-20-20-20-20-20--20-20-20-20-20-20-20--20-20-20-20-20-20-20-20-20-|
B:------------------------------------------------------------------|
G:------------------------------------------------------------------|
D:------------------------------------------------------------------|
A:------------------------------------------------------------------|
E:------------------------------------------------------------------|

  un  dos tres cuatro
e:---------------------|
B:-1-------------------|
G:-0---2---------------|
D:-2---2----0----------|
A:-3---0----0----------|
E:----------3---0------|

  gt1
e:-20-20-20----17-----20-20-20----17-----20-20-20-----17----|
B:----------20----20-----------20----20------------20----20-|
G:----------------------------------------------------------|
D:----------------------------------------------------------|
A:----------------------------------------------------------|
E:----------------------------------------------------------|

  gt2 Rhythm    
 pm. .  . . .    . . .    . . .    . . .   . . .    . . .                                       
e:----------------------------------------------------------|
B:------------1--------1--------1--------1-------1--------1-|
G:-0-0--------0--------0--------0--------0-------0--------0-|
D:-2-2------2-2------2-2------2-2------2-2-----2-2------2-2-|
A:-3-3------3--------3--------3--------3-------3--------3---|
E:------3-0------3-0------3-0------3-0-----3-0------3-0-----|

  gt1
e:-20-20-20-20-20--20-20---20-20-20-20-20--20-20---20-20-20-20-20--20-20-|
B:-----------------------------------------------------------------------|
G:-----------------------------------------------------------------------|
D:-----------------------------------------------------------------------|
A:-----------------------------------------------------------------------|
E:-----------------------------------------------------------------------|

   
e:-20-20-20-20-20--20-20-20-20-20-20-20--20-20-20-20-20-20-20-20-20-|
B:------------------------------------------------------------------|
G:------------------------------------------------------------------|
D:------------------------------------------------------------------|
A:------------------------------------------------------------------|
E:------------------------------------------------------------------|

  que dijieron? esto ya se acabo... no!!!    esto sigue
e:-20-20-20-20-20--20-20-20-20-20-20-20--20-20-20-20-20-20-20-20-20-|
B:------------------------------------------------------------------|
G:------------------------------------------------------------------|
D:------------------------------------------------------------------|
A:------------------------------------------------------------------|
E:------------------------------------------------------------------|

  un  dos tres cuatro
e:---------------------|
B:-1-------------------|
G:-0---2---------------|
D:-2---2----0----------|
A:-3---0----0----------|
E:----------3---0------|

  gt1
e:-20-20-20----17-----20-20-20----17-----20-20-20-----17----|
B:----------20----20-----------20----20------------20----20-|
G:----------------------------------------------------------|
D:----------------------------------------------------------|
A:----------------------------------------------------------|
E:----------------------------------------------------------|

  gt2 Rhythm     hey hey hey hey hey
 pm. .  . . .    . . .    . . .    . . .   . . .    . . .                                       
e:----------------------------------------------------------|
B:------------1--------1--------1--------1-------1--------1-|
G:-0-0--------0--------0--------0--------0-------0--------0-|
D:-2-2------2-2------2-2------2-2------2-2-----2-2------2-2-|
A:-3-3------3--------3--------3--------3-------3--------3---|
E:------3-0------3-0------3-0------3-0-----3-0------3-0-----|


e:-20-20--20-20--20-20-20-20--20-20--20-20---20-20-20-20-|
B:-------------------------------------------------------|
G:-------------------------------------------------------|
D:-------------------------------------------------------|
A:-------------------------------------------------------|
E:-------------------------------------------------------|


http://es.banda.wikia.com/wiki/Hechizeros_Band                   website

http://www.amazon.com/Hechizeros-Band/e/B001O3XE3C               discography

https://itunes.apple.com/us/artist/hechizeros-band/id298854490   itunes

http://www.youtube.com/user/HechizerosBandVEVO                   vevo



hillo son mex

07/04/14
Tap to rate this tab
# A B C D E F G H I J K L M N O P Q R S T U V W X Y Z