Song name
# A B C D E F G H I J K L M N O P Q R S T U V W X Y Z

Hed And London - Oh My God Ketchup tab

=================================================================================
=================================================================================


e|------------------------------------------------------|
B|------------------------------------------------------|
G|------------------------------------------------------|
D|------------------------------------------------------|
A|---0--0--2--2--3--3-----------------------------------|
E|------------------------3--3--------------------------|

e---------------------------------------------------------|
b---------------------------------------------------------|
g----2--2--4--4--5--5-------------------------------------|
d----2--2--4--4--5--5-------------------------------------|
a----0--0--2--2--3--3----5--5----7~~----------------------|
E------------------------3--3----5~~----------------------|


Ketchup.... Oh My God..
Ketchup.... Oh My God..


....yea.
Tap to rate this tab
# A B C D E F G H I J K L M N O P Q R S T U V W X Y Z