Song name
# A B C D E F G H I J K L M N O P Q R S T U V W X Y Z

Hed P E - Raise Hell tab

Help us improve GuitareTab! Take a short survey!
Artist: (Hed) P. E.
Song: Raise Hell
Album: Only in amerika

Tuning: Drop C

Key
h = Hammer On
p = Pull off
. = Palm Mute
* = Pinch Hrmonic
/ = Slide Up To:
\ = Slide Down To:

Intro (1):

D|-4-4-------------|
A|-----4-4-5-5-4-4-|
F|-----------------|
C|-----------------|
G|-----------------|
C|-----------------|

Intro (2):

D|---4-------------|
A|-----4-4-5-5-4-4-|
F|-----------------|
C|-----------------|
G|-----------------|
C|-----------------|

Riff A:

D|------------------------------------------------------------------|
A|------------------------------------------------------------------|
F|------------------------------------------------------------------|
C|------------------------------------------------------------------|
G|-----6-6-7-7-6-6-----6-6-7-7-6-6------2-2-4-4-2-2-----1-1-2-2-1-1-|
C|-6-6---------------6--------------2-2-------------1-1-------------|

Riff A (1):

D|------------------------------------------------------------------|
A|------------------------------------------------------------------|
F|------------------------------------------------------------------|
C|------------------------------------------------------------------|
G|-----6-6-7-7-6-6-----6-6-7-7-6-6------2-2-4-4-2-2-----1-1-2-2-1-1-|
C|-6-6---------------6--------------2-2---------------1-------------|

Riff B:

D|-------------------------------------------|
A|-------------------------------------------|
F|-------------------------------------------|
C|-6-6-6-6-6-6-6-6\0--------2---2------5---5-|
G|-6-6-6-6-6-6-6-6\0--------2---2------5---5-|
C|-6-6-6-6-6-6-6-6\0----000-2-0-2--000-5-0-5-|

Riff B (1):

D|-------------------------------------------|
A|-------------------------------------------|
F|-------------------------------------------|
C|-6-6-6-6-6-6-6-6----------2---2------5---5-|
G|-6-6-6-6-6-6-6-6----------2---2------5---5-|
C|-6-6-6-6-6-6-6-6------000-2-0-2--000-5-0-5-|

Roff's order

Intro
Intro (1) x3
Intro
Intro (1) x3
Riff A x3
Riff A (1)
Riff B x2
Riff B (1) x2
Riff A x3
Riff A (1)
Riff B x2
Riff B (1) x2
Riff A x3
Riff A (1)
Intro (1) x8
Riff A x3
Riff A (1)
Riff B x2
Riff B (1) x2
Riff B x2  <-----------------|
Riff A x3  <-----------------|--------------Under Solo
Riff A (1) <-----------------|
Riff A
Riff A (1)
Related for Raise Hell tab