Song name
# A B C D E F G H I J K L M N O P Q R S T U V W X Y Z

Hed Pe - I Got You tab

Tabbed by: Jack Khain
Email: Jack_khain@hotmail.com

Intro & Chorus

e|-------------------------|------------------------|
B|-------------------------|------------------------|
G|-----7-7-----------------|------------------------|
D|-----7-7-----8-8------33-|--3-3------2-2------22--|
A|-----5-5-----8-8------33-|--3-3------2-2------22--|
D|--0------xx--8-8--xx--33-|--3-3--xx--2-2--xx--22--|

Verse

e|--10-9-------------------|--10-9------------------|
B|-------------------------|------------------------|
G|-------------------------|------------------------|
D|-------------------------|------------------------|
A|-------------------------|------------------------|
D|-------------------------|------------------------|

Chorus part 2

e|--------------------|--------------------|
B|--------------------|--------------------|
G|--------------------|--------------------|
D|--9-12-9-7---0-x-0--|--9-12-9-7---0-x-0--|
A|--9-12-9-7---0-x-0--|--9-12-9-7---0-x-0--|
D|--9-12-9-7---0-x-0--|--9-12-9-7---0-x-0--|
Tap to rate this tab
 
# A B C D E F G H I J K L M N O P Q R S T U V W X Y Z