Hed Pe - Children Of The Fall tab

-------------------------------------------------------------------------------
			     Children of the Fall - Hed PE
-------------------------------------------------------------------------------
Tabbed by Eugene
Email: jahmper@gmail.com

Tuning: Standard

This song is played on the 7 string guitar. This tab is a 6 string version.
In intro couple of notes are palm muted. They are the first notes in riff. 
Its easy to hear which ones

[INTRO]
e|---------------------|                        e|----------------|
B|---------------------|                        B|----------------|
G|---------------------| x 7 and then one time  G|----------------| 
D|-9-9-9-\-4-/-10------|                        D|--9-9-/-10------|
A|-9-9-9-\-4-/-10------|                        A|--9-9-/-10------|                    
E|-7-7-7-\-2-/-8-------|                        E|--7-7-/-8-------|



[VERSE] Play palm muted
e|----------------------------------------------|
B|----------------------------------------------|
G|----------------------------------------------|
D|----------------------------------------------|  x 8
A|-9-9-9-9----9----9-9-9-9----9----9-9-9-9------|
E|-7-7-7-7----7----7-7-7-7----7----7-7-7-7------|


[CHORUS] Play this two times
e|---------------------|                        e|----------------|
B|---------------------|                        B|----------------|
G|---------------------| x 3 and then one time  G|----------------| 
D|-9-9-9-\-4-/-10------|                        D|--9-9-/-10------|
A|-9-9-9-\-4-/-10------|                        A|--9-9-/-10------|                    
E|-7-7-7-\-2-/-8-------|                        E|--7-7-/-8-------|


[BRIDGE]


e|-------------------|
B|-------------------|
G|-------------------| x 4
D|-------------------|
A|-------------------|
E|--7-7-7-7-7-7-7-7--|


e|-----------------------------------|-----------------------------------|
B|-----------------------------------|-----------------------------------|
G|-----------------------------------|-------------------7-7-7-----------|
D|-9---9-9-9-9-9-9---5-5-5--7-7-7----|-9---9-9-9-9-9-9---7-7-7--7-7-7----| __
A|-9---9-9-9-9-9-9---5-5-5--7-7-7----|-9---9-9-9-9-9-9---5-5-5--7-7-7----|   \
E|-7---7-7-7-7-7-7---3-3-3--5-5-5----|-7---7-7-7-7-7-7----------5-5-5----|    \
                                                                               \   play it twice
                                                                               /
e|-----------------------------------|-----------------------------------|    /
B|-----------------------------------|-----------------------------------| __/
G|-----------------------------------|-----------------------------------|
D|-9---9-9-9-9-9-9---5-5-5--7-7-7----|---4-4-4----5-5-5----2-2-2---7--6--|
A|-9---9-9-9-9-9-9---5-5-5--7-7-7----|---4-4-4----5-5-5----2-2-2---5--4--|
E|-7---7-7-7-7-7-7---3-3-3--5-5-5----|---2-2-2----3-3-3----0-0-0---5--4--|



e|-------------------------------------------|
B|-------------------------------------------|
G|-------------------------------------------|
D|-4-4---4-4---4-4---4-4-----------------2---|  x 4
A|-2-2---2-2---2-2---2-2-----------2-4-5-----|
E|-------------------------0-2-3-5-----------|



e|-----------------------------------------|
B|-----------------------------------------|
G|-4-4---4-4---4-4---4-4-------------------|
D|-4-4---4-4---4-4---4-4-------------------|  x 4 (it is also played in the end of the song)
A|-2-2---2-2---2-2---2-2----3-3--3--3------|
E|--------------------------1-1--1--1------|

[CHORUS]
Tap to rate this tab
 
# A B C D E F G H I J K L M N O P Q R S T U V W X Y Z