Song name
# A B C D E F G H I J K L M N O P Q R S T U V W X Y Z

Hed Pe - The Meadow tab

This is only the acoustic guitar part.

intro/verse(2nd part)
e---------------------------------------------------
B-3----------55/3----------5----------55/3----------
G-4----0---0-66/4----0---0-6----0---0-66/4----0---0-
D-4---4-4-4-466/4---4-4-4-46---4-4-4-466/4---4-4-4-4
A-2--2---2---44/2--2---2---4--2---2---44/2--2---2---
E---------------------------------------------------

verse(1st part)
e---2-22--4--2-22-2---2-2-22--4--2-22-2---2
B---3-33--5--3-33-3---3-3-33--5--3-33-3---3
G---4-44--6--4-44-4---4-4-44--6--4-44-4---4
D---4-44--6--4-44-4---4-4-44--6--4-44-4---4
A---2-22--4--2-22-2---2-2-22--4--2-22-2---2
E-2-----2-4-2-----2-0-2-----2-4-2-----2-0-2

repeat like this until, "My broken soul."
Then back to intro
Tap to rate this tab
# A B C D E F G H I J K L M N O P Q R S T U V W X Y Z