Song name
# A B C D E F G H I J K L M N O P Q R S T U V W X Y Z

Hed Pe - Forward Go tab

Album - Truth raising

My first tab. 
Listen to the song for the timing or watch my video.
Please let me know in case of any corrections.

My video
http://www.youtube.com/watch?v=yo_Cp3gmE5I

Riff 1 A
e|--------------------------------------------------------------------------|
B|--------------------------------------------------------------------------|
G|--------------------------------------------------------------------------|
D|-17-17-17-17-17-17--7-7-7-7-7-7--9-9-9-9-9-9---12-12-12-12-12-12----------|
A|-X--X--X--X--X--X---X-X-X-X-X-X--X-X-X-X-X-X---X--X--X--X--X--X-----------|
E|-15-15-15-15-15-15--5-5-5-5-5-5--7-7-7-7-7-7---10-10-10-10-10-10----------|
B|--------------------------------------------------------------------------|

e|--------------------------------------------------------------------------|
B|--------------------------------------------------------------------------|
G|--------------------------------------------------------------------------|
D|-9-9-9-9--7-7-7-7---------------------------------------------------------|
A|-X-X-X-X--X-X-X-X---------------------------------------------------------|
E|-7-7-7-7--5-5-5-5---------------------------------------------------------|
B|--------------------------------------------------------------------------|

RIFF 1B
e|----------------------------------------------------------------|
B|----------------------------------------------------------------|
G|----------------------------------------------------------------|
D|-7-7-7-7-7-7--9-9-9-9-9-9--11-11-11-11-11-11--14-14-14-14-14-14-|
A|-x-x-x-x-x-x--x-x-x-x-x-x--x--x--x--x--x--x---x--x--x--x--x--x--| 
E|-5-5-5-5-5-5--7-7-7-7-7-7--9--9--9--9--9--9---12-12-12-12-12-12-|
B|----------------------------------------------------------------|


e|-----------------------------------------------------------------|
B|-----------------------------------------------------------------|
G|-----------------------------------------------------------------|
D|-16-16-16-16-16-16-----------------------------------------------|
A|-x--x--x--x--x--x------------------------------------------------|
E|-14-14-14-14-14-14-----------------------------------------------|
B|-----------------------------------------------------------------|

RIFF 2

e|--------------------------------|
B|--------------------------------|
G|--------------------------------|
D|--------------------------------|
A|-5---7---8---9---8---7----------|
E|-5---7---8---9---8---7----------|
B|-3---5---6---7---6---5----------|

RIFF 3

e|-----------------------------------5-5-5-5-------||
B|-----------------------------------5-5-5-5-------||
G|-----------------------------------6-6-6-6-------||
D|--12------12------12------12-------7-7-7-7-------||
A|--x-------x-------x-------x--------7-7-7-7-------|| x many
E|--10------10------10------10-------5-5-5-5-------||
B|-----000-----000-----000-----000-----------------||


RIFF 4

e|-----------------------------------------|
B|-----------------------------------------|
G|-----------------------------------------|
D|-----------------------------------------|
A|-2--2---22-22222---9-7-5-----------------|
E|-2--2---22-22222---9-7-5-----------------|
B|-0--0---00-00000---7-5-3-----------------|

e|-----------------------------------------|
B|-----------------------------------------|
G|-----------------------------------------|
D|-----------------------------------------|
A|-2--2---22-22222---8-7-5-----------------|
E|-2--2---22-22222---8-7-5-----------------|
B|-0--0---00-00000---6-5-3-----------------|


RIFF 5

e|---------------|
B|---------------|
G|---------------|
D|---------------|
A|-10------2-----|
E|-10-x8---2-x8--| x3
B|--8------0-----|

e|-------------------|
B|-------------------|
G|-------------------|
D|-------------------|
A|-5-----7-----9-----|
E|-5-x8--7-x4--9-x4--|
B|-3-----5-----7-----|



Riff 6
e|-----------------------|
B|-----------------------|
G|-----------------------|
D|-----------------------|
A|-----------------------| 
E|-----5---7---10---7----| x3
B|-8---------------------|


e|-----------------------|
B|-----------------------|
G|-----------------------|
D|-----------------------|
A|-----------------------| 
E|-5---7---9---12---14---| x1
B|-----------------------|
Tap to rate this tab
# A B C D E F G H I J K L M N O P Q R S T U V W X Y Z