Song name
# A B C D E F G H I J K L M N O P Q R S T U V W X Y Z

Hed Pe - Suffa tab

(hed)p.e.
"Suffa"
Insomnia
2007

Started playin' round in Drop B n tried playin "Suffa" by ear.
Ended up with this.
I'm thinkin' it has 2 guitars so I tried tabbin' a rhythm.

Drop B (B F B E G c)

Rhythm Guitar

Intro/Chorus (Played 8 Times)

c----------------------|
G----------------------|
E----------------------|
B--300-300-300-5575-3--|
F--300-300-300-5575-3--|
B--300-300-300-5575-3--|

Pre-Verse

c--10~-------10~--|
G--10~-------10~--|
E--10~-------10~--|
B-----------------|
F-----------------|
B-----------------|

Verse

c--------------------------|
G--------------------------|
E--------------------------|
B--------------------------|
F--558558-85-5-8-5-8-[X4]--|
B--------------------------|

c-------------------------------------------------|
G-------------------------------------------------|
E-------------------------------------------------|
B-------------------------------------------------|
F--553558-85-5-8-5-8-[X1]-558558-85-5-8-5-8-[X2]--|
B-------------------------------------------------|

c---------------------|
G---------------------|
E---------------------|
B---------------------|
F--558558-85-3-5-3-5--|
B---------------------|

Bridge (Played 8 Times)

c----------------|
G----------------|
E----------------|
B--00000---0000--|
F--00000---0000--|
B--00000---0000--|

Outro (Played 4 Times)

c-------------------|
G-------------------|
E-------------------|
B--12~--6~--0~--6~--|
F--12~--6~--0~--6~--|
B--12~--6~--0~--6~--|

Basically it's...

Intro/Chorus
Pre-Verse
Verse
Intro/Chorus
Pre-Verse
Verse
Intro/Chorus
Bridge
Intro/Chorus
Outro

Tabbed by X8<-(Triggar8)->8X

Enjoy.
Tap to rate this tab
# A B C D E F G H I J K L M N O P Q R S T U V W X Y Z