Guitaretab - guitar tabs
Song name
# A B C D E F G H I J K L M N O P Q R S T U V W X Y Z

Hed Pe - Serpent Boy tab

Tabbed by:THE SANDMAN
Email:ryan5@iamwasted.com


Verse:
----------------------------------|--------------------------
----------------------------------|--------------------------
----------------------------------|--------------------------
------------4------------4x-x---|-----------4----------4---
------------2------------2x-x---|---4h5p4\2-2---4h5p4--2---
---2h3p2\1------2h3p2\1-----x-x---|--------------------------

Chorus:
gtr1:
------14----13------14------13-12-------14----9-8-----------
-------------------------------------------------------12---
---11----11------11----11------------11----11-----11--------
-----------------------------------------------------9------
------------------------------------------------------------
------------------------------------------------------------
[ Tab from: http://www.guitaretab.com/h/hed-pe/33264.html ]
gtr2:     x3         then:
------------------|---------------------
------------------|---------------------
------------------|---------------------
------------------|-----------------3---
------2---3-------|-----2---1h2p1-------
---1----1---2-0---|---1---1-------2-----

Bridge:
---------------------------------------------------------
---------------------------------------------------------
-----------------------4-----------------------------4---
-----------4---------4-3-4------------4------------4-3---
---2-3-2-1-2---2-3-2-2---2----2-3-2-1-2----2-3-2-0-2-----
---2-3-2-1-----2-3-2----------2-3-2-1------2-3-2-0-------

Bridge 2:
----------------------------
----------------------------
---10\9-9--8\7-7--7-8\7-7---
---10\9-9--8\7-7--7-8\7-7---
---8\\7-7--6\5-5--5-6\5-5---
----------------------------

Bridge 3:
---------------------
---------------------
---------------------
---4---7-----4---7---
---2---5-----2---5---
---------------------
Related for Serpent Boy tab