Song name
# A B C D E F G H I J K L M N O P Q R S T U V W X Y Z

Hed Pe - Raise Hell tab

Tabbed By:
Jose			
			
		Artist:Hed {P.E.}
		Song:Raise Hell
		Album:Only In Amerika
			
			

Tunning: "Drop C"

			-={Key]
       		---------------------
D|---  		| h = Hammer On
A|---  		| p = Pull off
F|--- 	 	| . = Palm Mute
C|--- 	 	| * = Pinch Hrmonic
G|--- 	 	| / = Slide Up To:
C|---  		| \ = Slide Down To:
       		----------------------




I'm not to sure about the Intro.
i think its sounds a little off.

-={Intro:

-={X1]
D|-----------------|
A|-----------------|
F|-----------------|
C|-----------------|
G|---6---6-7-7---6-|
C|-6---6-------6---|

-={X8]
D|---------------|
A|---------------|
F|---------------|
C|---------------|
G|---6---7-7---6-|
C|-6---6-----6---|

-={Chorus:

-={X3]
D|----------------------------------|
A|----------------------------------|
F|----------------------------------|
C|----------------------------------|
G|-----6-6-7-7-6-6------6-6-7-7-6-6-|
C|-6-6--------------6-6-------------|


D|----------------------------------|
A|----------------------------------|
F|----------------------------------|
C|----------------------------------|
G|-----2-2-4-4-2-2------1-1-2-2-1-1-|
C|-2-2--------------1-1-------------|

-={X1]
D|----------------------------------|
A|----------------------------------|
F|----------------------------------|
C|----------------------------------|
G|-----6-6-7-7-6-6------6-6-7-7-6-6-|
C|-6-6--------------6-6-------------|


D|-------------------------------------|
A|-------------------------------------|
F|-------------------------------------|
C|-------------------------------------|
G|-----2-2-4-4-2-2---------1-1-2-2-1-1-|
C|-2-2-------------------1-------------|

-={Hook:

-={X2]
D|-------------------|
A|-------------------|
F|-------------------|
C|-6-6-6-6-6-6-6-6\0-|
G|-6-6-6-6-6-6-6-6\0-|
C|-6-6-6-6-6-6-6-6\0-|


D|----------------------|
A|----------------------|
F|----------------------|
C|-----2---2------5---5-|
G|-----2---2------5---5-|
C|-000-2-0-2--000-5-0-5-|
P.m...   .    ...   .

-={X2]
D|-----------------|
A|-----------------|
F|-----------------|
C|-6-6-6-6-6-6-6-6-|
G|-6-6-6-6-6-6-6-6-|
C|-6-6-6-6-6-6-6-6-|


D|----------------------|
A|----------------------|
F|----------------------|
C|-----2---2------5---5-|
G|-----2---2------5---5-|
C|-000-2-0-2--000-5-0-5-|
P.m...   .    ...   .

-={X3]
D|----------------------------------|
A|----------------------------------|
F|----------------------------------|
C|----------------------------------|
G|-----6-6-7-7-6-6------6-6-7-7-6-6-|
C|-6-6--------------6-6-------------|


D|----------------------------------|
A|----------------------------------|
F|----------------------------------|
C|----------------------------------|
G|-----2-2-4-4-2-2------1-1-2-2-1-1-|
C|-2-2--------------1-1-------------|

-={X1]
D|----------------------------------|
A|----------------------------------|
F|----------------------------------|
C|----------------------------------|
G|-----6-6-7-7-6-6------6-6-7-7-6-6-|
C|-6-6--------------6-6-------------|


D|-------------------------------------|
A|-------------------------------------|
F|-------------------------------------|
C|-------------------------------------|
G|-----2-2-4-4-2-2---------1-1-2-2-1-1-|
C|-2-2-------------------1-------------|

-={X2]
D|-------------------|
A|-------------------|
F|-------------------|
C|-6-6-6-6-6-6-6-6\0-|
G|-6-6-6-6-6-6-6-6\0-|
C|-6-6-6-6-6-6-6-6\0-|


D|----------------------|
A|----------------------|
F|----------------------|
C|-----2---2------5---5-|
G|-----2---2------5---5-|
C|-000-2-0-2--000-5-0-5-|
P.m...   .    ...   .

-={X2]
D|-----------------|
A|-----------------|
F|-----------------|
C|-6-6-6-6-6-6-6-6-|
G|-6-6-6-6-6-6-6-6-|
C|-6-6-6-6-6-6-6-6-|


D|----------------------|
A|----------------------|
F|----------------------|
C|-----2---2------5---5-|
G|-----2---2------5---5-|
C|-000-2-0-2--000-5-0-5-|
P.m...   .    ...   .

-={X3]
D|----------------------------------|
A|----------------------------------|
F|----------------------------------|
C|----------------------------------|
G|-----6-6-7-7-6-6------6-6-7-7-6-6-|
C|-6-6--------------6-6-------------|


D|----------------------------------|
A|----------------------------------|
F|----------------------------------|
C|----------------------------------|
G|-----2-2-4-4-2-2------1-1-2-2-1-1-|
C|-2-2--------------1-1-------------|

-={X1]
D|----------------------------------|
A|----------------------------------|
F|----------------------------------|
C|----------------------------------|
G|-----6-6-7-7-6-6------6-6-7-7-6-6-|
C|-6-6--------------6-6-------------|


D|-------------------------------------|
A|-------------------------------------|
F|-------------------------------------|
C|-------------------------------------|
G|-----2-2-4-4-2-2---------1-1-2-2-1-1-|
C|-2-2-------------------1-------------|


-={X8]
D|---------------|
A|---------------|
F|---------------|
C|---------------|
G|---6---7-7---6-|
C|-6---6-----6---|


-={X3]
D|----------------------------------|
A|----------------------------------|
F|----------------------------------|
C|----------------------------------|
G|-----6-6-7-7-6-6------6-6-7-7-6-6-|
C|-6-6--------------6-6-------------|


D|----------------------------------|
A|----------------------------------|
F|----------------------------------|
C|----------------------------------|
G|-----2-2-4-4-2-2------1-1-2-2-1-1-|
C|-2-2--------------1-1-------------|

-={X1]
D|----------------------------------|
A|----------------------------------|
F|----------------------------------|
C|----------------------------------|
G|-----6-6-7-7-6-6------6-6-7-7-6-6-|
C|-6-6--------------6-6-------------|


D|-------------------------------------|
A|-------------------------------------|
F|-------------------------------------|
C|-------------------------------------|
G|-----2-2-4-4-2-2---------1-1-2-2-1-1-|
C|-2-2-------------------1-------------|

-={X2]
D|-------------------|
A|-------------------|
F|-------------------|
C|-6-6-6-6-6-6-6-6\0-|
G|-6-6-6-6-6-6-6-6\0-|
C|-6-6-6-6-6-6-6-6\0-|


D|----------------------|
A|----------------------|
F|----------------------|
C|-----2---2------5---5-|
G|-----2---2------5---5-|
C|-000-2-0-2--000-5-0-5-|
P.m...   .    ...   .

-={X2]
D|-----------------|
A|-----------------|
F|-----------------|
C|-6-6-6-6-6-6-6-6-|
G|-6-6-6-6-6-6-6-6-|
C|-6-6-6-6-6-6-6-6-|


D|----------------------|
A|----------------------|
F|----------------------|
C|-----2---2------5---5-|
G|-----2---2------5---5-|
C|-000-2-0-2--000-5-0-5-|
P.m...   .    ...   .



-={Solo:

-={Sorry Guys i  havnt tabbed the Solo.
But i am getting close to getting it
so as soon as i get it i will update the tab.]
>:[

D|-
A|-
F|-
C|-
G|-
C|-


D|-
A|-
F|-
C|-
G|-
C|-


-={X3]
D|----------------------------------|
A|----------------------------------|
F|----------------------------------|
C|----------------------------------|
G|-----6-6-7-7-6-6------6-6-7-7-6-6-|
C|-6-6--------------6-6-------------|


D|----------------------------------|
A|----------------------------------|
F|----------------------------------|
C|----------------------------------|
G|-----2-2-4-4-2-2------1-1-2-2-1-1-|
C|-2-2--------------1-1-------------|

-={X1]
D|----------------------------------|
A|----------------------------------|
F|----------------------------------|
C|----------------------------------|
G|-----6-6-7-7-6-6------6-6-7-7-6-6-|
C|-6-6--------------6-6-------------|


D|-----------------------------------|
A|-----------------------------------|
F|-----------------------------------|
C|-----------------------------------|
G|---2-2-4-4-2-2---------1-1-2-2-1-1-|
C|-2-------------------1-------------|



Thats it.
Comment or what ever.
Tap to rate this tab
 
# A B C D E F G H I J K L M N O P Q R S T U V W X Y Z