Song name
# A B C D E F G H I J K L M N O P Q R S T U V W X Y Z

Hedley - Dear Blank tab

hey we were tab virgins but now were not. we made this tab because we wanted to learn 
no one had tabbed it yet. its our first so dont get bitchy.
from robb young and stefffan jensen.

intro

E|-----|----------------------------------------------------||
B|-----|----------------------------------------------------||
G|-88--|888--888--888--888--888--888--888--888--------------|| x3
D|-xx--|xxx--xxx--xxx--xxx--xxx--xxx--xxx--xxx--------------||
A|-66--|666--666--666--666--666--666--666--666--------------||
D|-----|----------------------------------------------------||

Verse #1 "dear blank, i'm sorry i blanked..."
E|----------------------------------------------------------||
B|----------------------------------------------------------||
G|----------------------------------------------------------|| x2
D|-1-1---3-3---6-6---8-8---8-8-8----------------------------||
A|-1-1---3-3---6-6---8-8---8-8-8----------------------------||
D|-1-1---3-3---6-6---8-8---8-8-8----------------------------||

"last call, and here i am again..."
E|-----------------------------------------------------------------||
B|-----------------------------------------------------------------||
G|-----------------------------------------------------------------|| x2
D|-1--1-1-1-1-1-1--3--3-3-3-3-3-3--6--6-6-6-6-6-6--8--8-8-8-8-8-8--||
A|-1--1-1-1-1-1-1--3--3-3-3-3-3-3--6--6-6-6-6-6-6--8--8-8-8-8-8-8--||
D|-1--1-1-1-1-1-1--3--3-3-3-3-3-3--6--6-6-6-6-6-6--8--8-8-8-8-8-8--||
pm    * * * * * *     * * * * * *     * * * * * *     * * * * * *

prechorus "i don't wanna lose what i've..."
E|----------------------------------------------------------||
B|----------------------------------------------------------||
G|----------------------------------------------------------||
D|6-6-6-6-6-6-6-6--3-3-3-3-3-3-3-3--10-10-10-10-10-10-10-10-||
A|6-6-6-6-6-6-6-6--3-3-3-3-3-3-3-3--10-10-10-10-10-10-10-10-||
D|6-6-6-6-6-6-6-6--3-3-3-3-3-3-3-3--10-10-10-10-10-10-10-10-||
pm* * * * * * * *  * * * * * * * *  * * * * * * * * * * * *

prechorus continued
E|------------------------||
B|------------------------||
G|------------------------||
D|12-12-12-12-12-12-12-12-||
A|12-12-12-12-12-12-12-12-||
D|12-12-12-12-12-12-12-12-||
pm* * * * * * * * * * * *

chorus "noooooooooooo, i don't owe you..."
E|----------------------------------------------------------------------||
B|----------------------------------------------------------------------||
G|8-8-8-8-8-8-8-8-------------------------------------------------------||x2
D|8-8-8-8-8-8-8-8--6-6-6-6-6-6-6-6--8-8-8-8-8-8-8-8-8-8-8-8-8-8-8-8--6/-||
A|6-6-6-6-6-6-6-6--6-6-6-6-6-6-6-6--8-8-8-8-8-8-8-8-8-8-8-8-8-8-8-8--6/-||
D|-----------------6-6-6-6-6-6-6-6--8-8-8-8-8-8-8-8-8-8-8-8-8-8-8-8--6/-||

chorus continued "i'm numb can't kill..."
E|----------------------------------------------------------------------||
B|----------------------------------------------------------------------||
G|----------------------------------------------------------------------||
D|3-3-3-3-3-3-3-3--5-5-5-5-5-5-5-5--6-6-6-6-6-6-6-6--8-8-8-8-8-8-8-8----||
A|3-3-3-3-3-3-3-3--5-5-5-5-5-5-5-5--6-6-6-6-6-6-6-6--8-8-8-8-8-8-8-8----||
D|3-3-3-3-3-3-3-3--5-5-5-5-5-5-5-5--6-6-6-6-6-6-6-6--8-8-8-8-8-8-8-8----||

continuation of chorus continued "cause i don't owe you..."
E|--------------------||
B|--------------------||
G|--------------------||
D|6-6-6-6-6-6-6-6--11~||
A|6-6-6-6-6-6-6-6--11~||
D|6-6-6-6-6-6-6-6--11~||

bridge
E|---|-----------------------------------------------------||
B|---|-----------------------------------------------------||
G|8-8|-888--888--888--888--888--888--888--888--------------||x3
D|x-x|-xxx--xxx--xxx--xxx--xxx--xxx--xxx--xxx--------------||
A|6-6|-666--666--666--666--666--666--666--666--------------||
D|---|-----------------------------------------------------||

verse #2 "'bout now, you're thinkin' to yourself..."
E|----------------------------------------------------------||
B|----------------------------------------------------------||
G|----------------------------------------------------------||x2
D|1-1--3-3--6-6--8-8--8-8-8---------------------------------||
A|1-1--3-3--6-6--8-8--8-8-8---------------------------------||
D|1-1--3-3--6-6--8-8--8-8-8---------------------------------||

"tell ya though it's something that..."
E|--------------------------------------------------------------||
B|--------------------------------------------------------------||
G|--------------------------------------------------------------||x2
D|1--1-1-1-1-1-1--3--3-3-3-3-3-3--6--6-6-6-6-6-6--8--8-8-8-8-8-8||
A|1--1-1-1-1-1-1--3--3-3-3-3-3-3--6--6-6-6-6-6-6--8--8-8-8-8-8-8||
D|1--1-1-1-1-1-1--3--3-3-3-3-3-3--6--6-6-6-6-6-6--8--8-8-8-8-8-8||
pm   * * * * * *     * * * * * *     * * * * * *     * * * * * *

prechorus "i don't wanna lose what i've got..."
E|-----------------------------------------------------------||
B|-----------------------------------------------------------||
G|-----------------------------------------------------------||
D|6-6-6-6-6-6-6-6--3-3-3-3-3-3-3-3--10-10-10-10-10-10-10-10--||
A|6-6-6-6-6-6-6-6--3-3-3-3-3-3-3-3--10-10-10-10-10-10-10-10--||
D|6-6-6-6-6-6-6-6--3-3-3-3-3-3-3-3--10-10-10-10-10-10-10-10--||

prechorus continued
E|-------------------------||
B|-------------------------||
G|-------------------------||
D|12-12-12-12-12-12-12-12--||
A|12-12-12-12-12-12-12-12--||
D|12-12-12-12-12-12-12-12--||

chorus "nooooooooooo, i don't know you..."
E|----------------------------------------------------------------------||
B|----------------------------------------------------------------------||
G|8-8-8-8-8-8-8-8-------------------------------------------------------||x2
D|8-8-8-8-8-8-8-8--6-6-6-6-6-6-6-6--8-8-8-8-8-8-8-8-8-8-8-8-8-8-8-8--6/-||
A|6-6-6-6-6-6-6-6--6-6-6-6-6-6-6-6--8-8-8-8-8-8-8-8-8-8-8-8-8-8-8-8--6/-||
D|-----------------6-6-6-6-6-6-6-6--8-8-8-8-8-8-8-8-8-8-8-8-8-8-8-8--6/-||

chorus continued "i'm numb can't kill..."
E|------------------------------------------------------------------||
B|------------------------------------------------------------------||
G|------------------------------------------------------------------||
D|3-3-3-3-3-3-3-3--5-5-5-5-5-5-5-5--6-6-6-6-6-6-6-6--8-8-8-8-8-8-8-8||
A|3-3-3-3-3-3-3-3--5-5-5-5-5-5-5-5--6-6-6-6-6-6-6-6--8-8-8-8-8-8-8-8||
D|3-3-3-3-3-3-3-3--5-5-5-5-5-5-5-5--6-6-6-6-6-6-6-6--8-8-8-8-8-8-8-8||

continuation of chorus continued "cause i don't owe you..."
E|-------------------||
B|-------------------||
G|-------------------||
D|6-6-6-6-6-6-6-6--11||
A|6-6-6-6-6-6-6-6--11||
D|6-6-6-6-6-6-6-6--11||

break downish thing "i don't care if there is a time..."
E|----------------------------------------------------||
B|----------------------------------------------------||
G|----------------------------------------------------||x2
D|1-1-1-1-1-1-1-1--3-3-3-3-3-3-3-3--6-6-65xx65xx65xx63||
A|1-1-1-1-1-1-1-1--3-3-3-3-3-3-3-3--6-6-65xx65xx65xx63||
D|1-1-1-1-1-1-1-1--3-3-3-3-3-3-3-3--6-6-65xx65xx65xx63||

interlude thinggy "dear blank, i'm sorry..."
E|-------------------------------------------------------------------||
B|-------------------------------------------------------------------||
G|-------------------------------------------------------------------||
D|1~-----3~-----6~-----1~-----3~-----6--6-6-6-6-6-6-6-6-6-6-6-6-6-6-6||
A|1~-----3~-----6~-----1~-----3~-----6--6-6-6-6-6-6-6-6-6-6-6-6-6-6-6||
D|1~-----3~-----6~-----1~-----3~-----6--6-6-6-6-6-6-6-6-6-6-6-6-6-6-6||
gradualy let up                         > > > > > > > > > > > > > > >

chorus " no i don't owe you..."
E|---------|-----------------------------------------------------------||
B|---------|-----------------------------------------------------------||
G|noooooooo|xx8--------------------------------------------------------||x2
D|i don't  |xx8--6-6-6-6-6-6-6-6--8-8-8-8-8-8-8-8-8-8-8-8-8-8-8-8--6/--||
A|owe you  |xx6--6-6-6-6-6-6-6-6--8-8-8-8-8-8-8-8-8-8-8-8-8-8-8-8--6/--||
D|anything |-----6-6-6-6-6-6-6-6--8-8-8-8-8-8-8-8-8-8-8-8-8-8-8-8--6/--||

chorus continued "i'm numb can't kill..."
E|------------------------------------------------------------------||
B|------------------------------------------------------------------||
G|------------------------------------------------------------------||
D|3-3-3-3-3-3-3-3--5-5-5-5-5-5-5-5--6-6-6-6-6-6-6-6--8-8-8-8-8-8-8-8||
A|3-3-3-3-3-3-3-3--5-5-5-5-5-5-5-5--6-6-6-6-6-6-6-6--8-8-8-8-8-8-8-8||
D|3-3-3-3-3-3-3-3--5-5-5-5-5-5-5-5--6-6-6-6-6-6-6-6--8-8-8-8-8-8-8-8||


continuation of chorus continued "cause i don't owe you..."
E|-------------------||
B|-------------------||
G|-------------------||
D|6-6-6-6-6-6-6-6--11||
A|6-6-6-6-6-6-6-6--11||
D|6-6-6-6-6-6-6-6--11||

outro "time after time and a place..."
E|-----|----------------------------------------------------||
B|-----|----------------------------------------------------||
G|-88--|888--888--888--888--888--888--888--888--------------|| x3
D|-xx--|xxx--xxx--xxx--xxx--xxx--xxx--xxx--xxx--------------||
A|-66--|666--666--666--666--666--666--666--666--------------||
D|-----|----------------------------------------------------||

"cause i don't owe you anything"
E|-----||
B|-----||
G|-----||
D|-11~-||
A|-11~-||
D|-11~-||

that's all hope you liked it

| /  slide up
| \  slide down
| h  hammer-on
| p  pull-off
| ~  vibrato
| +  harmonic
| x  Mute note
============================================================================
Tap to rate this tab
# A B C D E F G H I J K L M N O P Q R S T U V W X Y Z