Song name
# A B C D E F G H I J K L M N O P Q R S T U V W X Y Z

Hedley - On My Own Acoustic tab

Guitar tuning: 1/2 step down

e|----------2-------3---|---------------2---3----------------|
B|--3---2---3---3---2---|---3---3---3---3---2---3---2---(0)--|
G|--2---2---4---2---0---|---2---2---4---4---0---2---2---(1)--|
D|--0---2---4---0---0---|---0---x---4---4---0---0---2---(2)--|
A|------0---2-------2---|-------4---2---0---2-------0---(2)--|
E|--------------2---3---|-------------------3---2-------(0)--|

e|--3---2-------3---------------|----3-----------0-----|
B|--2---3---2---2---3---2---0---|----2---3---2---0-----|
G|--0---4---2---0---2---2---1---|----0---2---2---1-----|
D|--0---4---2---0---0---2---2---|----0---0---2---2-----|
A|--2---2---0---2-------0---2---|----2-------0---2-----|
E|--3-----------3-----------0---|----3-----------0-----|

Here'S the chords for this song. It's the acoustic version played by hedley
at the orange loungde on sympatico msn...sry i was too lazy to write the
strumming patterns, so listen to the song to get it right. Alternate the parts to fit 
song. Plz write back for any comments.
Tap to rate this tab
# A B C D E F G H I J K L M N O P Q R S T U V W X Y Z