Song name
# A B C D E F G H I J K L M N O P Q R S T U V W X Y Z

Hedley - Trip tab

ok, so Hedley's 2nd single, and an awesome song, and all the other tabbers on here have 
it wrong, they have all put up the old acoustic version, I can guaruntee that this tab 
be 99% right. This is the tab for the album version.

Song: Trip
Artist: Hedley
Album: Hedley
Tuning: Standard
Written By: Jacob Hoggard, Dave Rosin, Tom MacDonald, Chris Crippin, Brian Howes

~ = let ring
/ = slide up
\ = slide down
.(beside note) = staccato
.(above tab) = PM
hb = half bend
fb = full bend
qb = quarter bend
rb = release bend
h = hammer on
p = pull off

Intro - use tremolo effect when letting the first 2 notes ring out
e|---------------------------------------------------------------------|
B|---------------------------------------------------------------------|
G|-----9~~~---8~~~-----99/1111/14\13131313---99/1111/14\1313.-13/14\13-| CONT.
D|-----X~~~---X~~~-----XX/X-X-/X-\X-X-X-X----XX/X-X-/X-\X-X-.-X-/X-\X--| ON
A|-----7~~~---6~~~-----77/9-9-/12\11111111---77/9-9-/12\1111.-11/12\11-| NEXT
E|---------------------------------------------------------------------| LINE

e|-------------------------------|
B|-------------------------------|
G|-----99/1111/14\13131313/14~~~-|
D|-----XX/X-X-/X-\X-X-X-X-/X-~~~-|
A|-----77/9-9-/12\11111111/12~~~-|
E|-------------------------------|

Verse - tabbers who have tabbed acoustic versions, the acoustic guitar is played underneath the electric
 ps. let notes ring throughout
e|-----------------------------------------------------------------|
B|-----------------------------------------------------------------|
G|-----------------------------------------------------------------|
D|--------9-9---9~~----9-9---9~~----9-9---9~~----9-9---9.-9/11\9---|  2x
A|-----7-7---7-7----6-6---6-6--------------------------------------|
E|-------------------------------9-9---9-9----7-7---7-7------------|

Pre-Chorus
e|-----------------------------------------------------------|
B|-----------------------------------------------------------|
G|------9--8--9--8-------9--8--9--8-------9--8--9--8---------| Cont. on next
D|-------9--9--9--9-9-9---9--9--9--9-9-9---9--9--9--9-9-9----| line
A|-----7--7--7--7--7-7--7--7--7--7--7-7--7--7--7--7--7-7-----|
E|-----------------------------------------------------------|

e|-----------------------------|
B|-----------------------------|
G|-----9989111198-9989111198---|
D|-----99999-9-99-99999-9-99---|
A|-----------------------------|
E|-----------------------------|

Chorus
e|---------------------------------------------------------------------|
B|---------------------------------------------------------------------|
G|-----99999999--------------------------------------99999999----------| CONT
D|-----99999999-99999999-1111111111111111-7777777/9--99999999-99999999-| ON
A|-----77777777-99999999-1111111111111111-7777777/9--77777777-99999999-| NEXT
E|--------------77777777-9-9-9-9-9-9-9-9--5555555/7-----------77777777-| LINE

e|--------------------------------------------|
B|--------------------------------------------|
G|--------------------------------------------|
D|-----1111111111111111/13131313/14141414-7~~-|
A|-----1111111111111111/13131313/14141414-7~~-|
E|-----9-9-9-9-9-9-9-9-/11111111/12121212-5~~-|

Then theres a little guitar fill using filter effect and the verse is just played underneath it
e|---------------------------------------------------------------------------|
B|---------------------------------------------------------------------------|
G|-----9-11-14-13~~-9-11-14-13~~-9-11-14-13~~-13hbrb-9-13hbrb-9-13hbrbhbrb~~-|
D|---------------------------------------------------------------------------|
A|---------------------------------------------------------------------------|
E|---------------------------------------------------------------------------|

Verse - ps. let notes ring throughout
e|-----------------------------------------------------------------|
B|-----------------------------------------------------------------|
G|-----------------------------------------------------------------|
D|--------9-9---9~~----9-9---9~~----9-9---9~~----9-9---9.-9/11\9---|  1x
A|-----7-7---7-7----6-6---6-6--------------------------------------|
E|-------------------------------9-9---9-9----7-7---7-7------------|

Pre-Chorus
e|-----------------------------------------------------------|
B|-----------------------------------------------------------|
G|------9--8--9--8-------9--8--9--8-------9--8--9--8---------| Cont. on next
D|-------9--9--9--9-9-9---9--9--9--9-9-9---9--9--9--9-9-9----| line
A|-----7--7--7--7--7-7--7--7--7--7--7-7--7--7--7--7--7-7-----|
E|-----------------------------------------------------------|

e|-----------------------------|
B|-----------------------------|
G|-----9989111198-9989111198---|
D|-----99999-9-99-99999-9-99---|
A|-----------------------------|
E|-----------------------------|

Chorus
e|---------------------------------------------------------------------|
B|---------------------------------------------------------------------|
G|-----99999999--------------------------------------99999999----------| CONT
D|-----99999999-99999999-1111111111111111-7777777/9--99999999-99999999-| ON
A|-----77777777-99999999-1111111111111111-7777777/9--77777777-99999999-| NEXT
E|--------------77777777-9-9-9-9-9-9-9-9--5555555/7-----------77777777-| LINE

e|---------------------------------------------------|
B|---------------------------------------------------|
G|---------------------------------------------------|
D|-----1111111111111111/13131313/14141414-77777777---|
A|-----1111111111111111/13131313/14141414-77777777---|
E|-----9-9-9-9-9-9-9-9-/11111111/12121212-55555555---|

Bridge - again, first 2 notes held, using effect
                                  pm ...... .........
e|--------------------------------------------------------------|
B|--------------------------------------------------------------|
G|--------------------------------------------------------------|
D|-----9~~~-9~~~--99999999-999999999------------------99999999--| Cont on next
A|-----6~~~-7~~~--77777777-666666666------------------77777777--| line
E|-----------------------------------444444-555555555-----------|

e|----------------------------------|
B|----------------------------------|
G|----------------------------------|
D|-----999999999-666666-777777777---|
A|-----666666666-666666-777777777---|
E|---------------444444-555555555---|

Guitar Solo
e|--------------------------------------11----11----11----11-------|
B|----------------------7--7--9--9.--/12--1212--1212--1212--1212---|
G|---------------------9-99-99-99----------------------------------|
D|--9--9---9--9-9/11\9---------------------------------------------| cont on
A|-7-77-7-6-66-6---------------------------------------------------| next line
E|-----------------------------------------------------------------|

e|-9-11-11hbrb-9-9h11----|
B|-----------------------|
G|-----------------------|
D|-----------------------|
A|-----------------------|
E|-----------------------|

Final Chorus
e|------------------------------------------------------------------|
B|------------------------------------------------------------------|
G|-----99~~~--------------------------------------99999999----------| CONT ON
D|-----99~~~--99999999------------------7777777/9-99999999-99999999-| NEXT
A|-----77~~~--99999999-1111111111111111-7777777/9-77777777-99999999-| LINE
E|------------77777777-9-9-9-9-9-9-9-9--5555555/7----------77777777-|

e|---------------------------------------------------|
B|---------------------------------------------------|
G|---------------------------------------------------|
D|-----1111111111111111/13131313/14141414-77777777---|
A|-----1111111111111111/13131313/14141414-77777777---|
E|-----9-9-9-9-9-9-9-9-/11111111/12121212-55555555---|

Outro
e|---------------------------------------------------------------------|
B|---------------------------------------------------------------------|
G|-----99999999--------------------------------------99999999----------| CONT
D|-----99999999-99999999-1111111111111111-7777777/9--99999999-99999999-| ON
A|-----77777777-99999999-1111111111111111-7777777/9--77777777-99999999-| NEXT
E|--------------77777777-9-9-9-9-9-9-9-9--5555555/7-----------77777777-| LINE

e|-------------------------------0~~~---|
B|-------------------------------1~~~---|
G|-------------------------------2~~~---|
D|-----1111111111111111-7~~~-----2~~~---|
A|-----1111111111111111-7~~~-----0~~~---|
E|-----9-9-9-9-9-9-9-9--5~~~------------|

Thats it! Just end on and Am chord and its done! Its a great song
Don't forget to rate it!
Tap to rate this tab
 
# A B C D E F G H I J K L M N O P Q R S T U V W X Y Z