Song name
# A B C D E F G H I J K L M N O P Q R S T U V W X Y Z

Hedley - Perfect tab

Song: Perfect
Band: Hedley
Tabber: Alex MacLean

Hey,

This is the intro to Perfect off of Hedleys's new album 
The show must go.
It is an awesome song and you should buy their new album.
And it works best if you let the notes ring out and if you 
have on guitarist play the right hand and the other the left.
By the way the left hand is four beats per bar. You'll have to 
figure out the right hand for yourself.

Right Hand

e|-------3-----------|-------3-----------|
B|-1---1----1---1----|-1---1----1---1----|
G|---4--------4---2--|---4--------4------|
D|-------------------|----------------3--|
A|-------------------|-------------------|
E|-------------------|-------------------|

e|-------3-----------|-------3-----------|
B|-1---1----1---1----|-1---1----1---1-3--|
G|---4--------4---0--|---4--------4------|
D|-------------------|-------------------|
A|-------------------|-------------------|
E|-------------------|-------------------|



Left Hand
    Am                 F              C              Gsus4 G
e|------------------|--------------|--------------|--------------|
B|------------------|--------------|--------------|--------------|
G|------------------|--------------|--------------|--------------|
D|--10--10--10--10--|--7--7--7--7--|--5--5--5--5--|--0--0--0--0--|
A|--12--12--12--12--|--8--8--8--8--|--7--7--7--7--|--3--3--2--2--|
E|--12--12--12--12--|--8--8--8--8--|--8--8--8--8--|--3--3--3--3--|




Tap to rate this tab
# A B C D E F G H I J K L M N O P Q R S T U V W X Y Z