Song name
# A B C D E F G H I J K L M N O P Q R S T U V W X Y Z

Hedley - Perfect tab

Here's the piano translation.

Melody:

e|--------3---------------3---------------3---------------3---------|
B|---------------------------------------------------------------3--|
G|--5-4-5--5-4-5-2---5-4-5-5-4-5-----5-4-5-5-4-5-0---5-4-5-5-4-5----|
D|-------------------------------3----------------------------------|
A|------------------------------------------------------------------|
E|------------------------------------------------------------------|


Bass line:

e|---------------------------------------|
B|---------------------------------------|
G|---------------------------------------|
D|--10-10-10-10-7-7-7-7-5-5-5-5-0-0-0-0--|
A|--12-12-12-12-8-8-8-8-7-7-7-7-3-3-2-2--|
E|--12-12-12-12-8-8-8-8-8-8-8-8-3-3-3-3--|

Repeat as necessary.

Tap to rate this tab
# A B C D E F G H I J K L M N O P Q R S T U V W X Y Z