Song name
# A B C D E F G H I J K L M N O P Q R S T U V W X Y Z

Hedley - Never Too Late tab

-Never Too Late-

Hedley

INTRO/VERSE

/: Slide up
\: Slide down

|-----------------------------|--------------------------------------|
|-------9---------------------|--------9---------9---------------9---|
|---------9---11----9--11\----|----------9---------9---9--9/11-----9-|
|--7/9------9-----------------|--7/11------11-7------7--7-----9------|
|-----------------------------|--------------------------------------|
|-----------------------------|--------------------------------------|


RYTHM:
|----------------------|----------------------|----------------------|
|-----9-XX-9-XX-9-XX-9-|-----7-XX-7-XX-7-XX-7-|-----5-XX-5-XX-5-XX-5-|
|-----9-XX-9-XX-9-XX-9-|-----8-XX-8-XX-8-XX-8-|-----6-XX-6-XX-6-XX-6-|
|-----9-XX-9-XX-9-XX-9-|-----9-XX-9-XX-9-XX-9-|-----6-XX-6-XX-6-XX-6-|
|--7-------------------|--6-------------------|--4-------------------|
|----------------------|----------------------|----------------------|

|----------------------|
|----------------------|
|-----6-XX-6----8-XX-8-|
|-----7-XX-7----9-XX-9-|
|-----7-XX-7----9-XX-9-|
|--5---------7---------|
Tap to rate this tab
 
# A B C D E F G H I J K L M N O P Q R S T U V W X Y Z