Song name
# A B C D E F G H I J K L M N O P Q R S T U V W X Y Z

Hedley - All You Get Is Sound tab

This tab I'm pretty sure is 100%. Tabbed it from http://www.youtube.com/watch?v=4K501fH3ofo

Tuning is 1/2 a step down, as it always is on Jake's Guitar.

Tabbed by Kayla321

Intro

e|-----------------------------------------------------------------------|
B|-----0---0---0----0----0---0---0-----0-----0---0--0----0---------------|
G|-----8---8---8----8----6---6---6-----6-----1---1--1----1---------------|
D|-----------------------------------------------------------------------|
A|-----------------------------------------------------------------------|
E|---7----7------7-----5---5--------5------0---0------0------------------|

e|---------------------|
B|-----0---0---0----0--|
G|-----8---8---8----8--|
D|---------------------|
A|---------------------|
E|---7----7------7-----|


Verse

e|-----------------------------------------------------------------------|
B|-----0---0---0----0----0---0---0-----0-----0---0--0----0---------------|
G|-----8---8---8----8----6---6---6-----6-----1---1--1----1---------------|
D|-----------------------------------------------------------------------|
A|-----------------------------------------------------------------------|
E|---7----7------7-----5---5--------5------0---0------0------------------|
       So baby here's another excuse for the way our things been
e|---------------------|
B|-----0---0---0----0--|
G|-----8---8---8----8--|
D|---------------------|
A|---------------------|
E|---7----7------7-----|
   going


e|-----------------------------------------------------------------------|
B|-----0---0---0----0----0---0---0-----0-----0---0--0----0---------------|
G|-----8---8---8----8----6---6---6-----6-----1---1--1----1---------------|
D|-----------------------------------------------------------------------|
A|-----------------------------------------------------------------------|
E|---7----7------7-----5---5--------5------0---0------0------------------|
     Excuse me if i say what i mean cause i know i've been gone too
e|---------------------|
B|-----0---0---0----0--|
G|-----8---8---8----8--|
D|---------------------|
A|---------------------|
E|---7----7------7-----|
     long

Pre-Chorus

e|-----------------------------------------------------------------------|
B|-----0---0---0----0----0---0---0-----0-----0---0--0----0---------------|
G|-----3---3---3----3----6---6---6-----6-----1---1--1----1---------------|
D|-----------------------------------------------------------------------|
A|-----------------------------------------------------------------------|
E|---2----2------2-----5---5--------5------0---0------0------------------|
So don't believe everything, don't believe everything, that you
e|---------------------|
B|-----0---0---0----0--|
G|-----8---8---8----8--|
D|---------------------|
A|---------------------|
E|---7----7------7-----|
   hear
e|-----------------------------------------------------------------------|
B|-----0---0---0----0----0---0---0-----0-----0---0--0----0---------------|
G|-----3---3---3----3----6---6---6-----6-----5---5--5----5---------------|
D|-----------------------------------------------------------------------|
A|-----------------------------------------------------------------------|
E|---2----2------2-----5---5--------5------4---4------4------------------|
'Cause baby i'm everything, baby i'm everything, when I'm
e|---------------------|
B|-----0---0---0----0--|
G|-----3---3---3----3--|
D|---------------------|
A|---------------------|
E|---2----2------2-----|
   near

Chorus

e|-------------------------------------------------------------|
B|---0---0--0----0-----0---0---0-----0------0---0---0-----0----|
G|---1---1--1----1-----8---8---8-----8------1---1---1-----1----|
D|-------------------------------------------------------------|
A|-------------------------------------------------------------|
E|0---0-------0-----7----7-------7-------0---0---------0-------|
  'Cause all i can offer is            when        i'm

e|---------------------|
B|-----0---0---0----0--|
G|-----8---8---8----8--|
D|---------------------|
A|---------------------|
E|---7----7------7-----|
   around


e|-------------------------------------------------------------|
B|---0---0--0----0-----0---0---0-----0------0---0---0-----0----|
G|---1---1--1----1-----8---8---8-----8------1---1---1-----1----|
D|-------------------------------------------------------------|
A|-------------------------------------------------------------|
E|0---0-------0-----7----7-------7-------0---0---------0-------|
    Take  me  away  and you will see     that all you get is

e|---------------------|
B|-----0---0---0----0--|
G|-----8---8---8----8--|
D|---------------------|
A|---------------------|
E|---7----7------7-----|
   sound

(go straight from the end of the chorus into the 2nd chord of the intro)
e|------------------------------------------|
B|-----0---0---0-----0-----0---0--0----0----|
G|-----6---6---6-----6-----1---1--1----1----|
D|------------------------------------------|
A|------------------------------------------|
E|---5---5--------5------0---0------0-------|
      oh      oh      oh
e|---------------------|
B|-----0---0---0----0--|
G|-----8---8---8----8--|
D|---------------------|
A|---------------------|
E|---7----7------7-----|


Verse 2

e|-----------------------------------------------------------------------|
B|-----0---0---0----0----0---0---0-----0-----0---0--0----0---------------|
G|-----8---8---8----8----6---6---6-----6-----1---1--1----1---------------|
D|-----------------------------------------------------------------------|
A|-----------------------------------------------------------------------|
E|---7----7------7-----5---5--------5------0---0------0------------------|
     So baby this is how it's gotta be and I know our times are
e|---------------------|
B|-----0---0---0----0--|
G|-----8---8---8----8--|
D|---------------------|
A|---------------------|
E|---7----7------7-----|
   goin'

e|-----------------------------------------------------------------------|
B|-----0---0---0----0----0---0---0-----0-----0---0--0----0---------------|
G|-----8---8---8----8----6---6---6-----6-----1---1--1----1---------------|
D|-----------------------------------------------------------------------|
A|-----------------------------------------------------------------------|
E|---7----7------7-----5---5--------5------0---0------0------------------|
     Excuse me if I mean what i say cause I know i've been gone too
e|---------------------|
B|-----0---0---0----0--|
G|-----8---8---8----8--|
D|---------------------|
A|---------------------|
E|---7----7------7-----|
   long

Pre-Chorus

e|-----------------------------------------------------------------------|
B|-----0---0---0----0----0---0---0-----0-----0---0--0----0---------------|
G|-----3---3---3----3----6---6---6-----6-----1---1--1----1---------------|
D|-----------------------------------------------------------------------|
A|-----------------------------------------------------------------------|
E|---2----2------2-----5---5--------5------0---0------0------------------|
So don't believe everything, don't believe everything, that you
e|---------------------|
B|-----0---0---0----0--|
G|-----8---8---8----8--|
D|---------------------|
A|---------------------|
E|---7----7------7-----|
   read

e|-----------------------------------------------------------------------|
B|-----0---0---0----0----0---0---0-----0-----0---0--0----0---------------|
G|-----3---3---3----3----6---6---6-----6-----5---5--5----5---------------|
D|-----------------------------------------------------------------------|
A|-----------------------------------------------------------------------|
E|---2----2------2-----5---5--------5------4---4------4------------------|
'Cause baby i'm everything, baby i'm everything, That you
e|---------------------|
B|-----0---0---0----0--|
G|-----3---3---3----3--|
D|---------------------|
A|---------------------|
E|---2----2------2-----|
   need

Chorus

e|-------------------------------------------------------------|
B|---0---0--0----0-----0---0---0-----0------0---0---0-----0----|
G|---1---1--1----1-----8---8---8-----8------1---1---1-----1----|
D|-------------------------------------------------------------|
A|-------------------------------------------------------------|
E|0---0-------0-----7----7-------7-------0---0---------0-------|
  'Cause all i can offer is            when        i'm

e|---------------------|
B|-----0---0---0----0--|
G|-----8---8---8----8--|
D|---------------------|
A|---------------------|
E|---7----7------7-----|
   around


e|-------------------------------------------------------------|
B|---0---0--0----0-----0---0---0-----0------0---0---0-----0----|
G|---1---1--1----1-----8---8---8-----8------1---1---1-----1----|
D|-------------------------------------------------------------|
A|-------------------------------------------------------------|
E|0---0-------0-----7----7-------7-------0---0---------0-------|
    Take  me  away  and you will see     that all you get is

e|---------------------|
B|-----0---0---0----0--|
G|-----8---8---8----8--|
D|---------------------|
A|---------------------|
E|---7----7------7-----|
   sound

(go straight from the end of the chorus into the 2nd chord of the intro)
e|------------------------------------------|
B|-----0---0---0-----0-----0---0--0----0----|
G|-----6---6---6-----6-----1---1--1----1----|
D|------------------------------------------|
A|------------------------------------------|
E|---5---5--------5------0---0------0-------|
      oh      oh      oh
e|---------------------|
B|-----0---0---0----0--|
G|-----8---8---8----8--|
D|---------------------|
A|---------------------|
E|---7----7------7-----|


e|-----------------------------------------------------------------------|
B|-----0---0---0----0----0---0---0-----0-----0---0--0----0---------------|
G|-----8---8---8----8----6---6---6-----6-----1---1--1----1---------------|
D|-----------------------------------------------------------------------|
A|-----------------------------------------------------------------------|
E|---7----7------7-----5---5--------5------0---0------0------------------|
     OOOOOOOOOOOOOOOOOOOOooooooooooooooooooOOoooo
e|---------------------|
B|-----0---0---0----0--|
G|-----8---8---8----8--|
D|---------------------|
A|---------------------|
E|---7----7------7-----|

Bridge

e|------------------------------|
B|-----0---0---0----0----0---0--|
G|-----8---8---8----8----8---8--|
D|------------------------------|
A|------------------------------|
E|---7----7------7----7----7----|
  (no lyrics for this part. just guitar.)
e|--------------------------------------------------------------|
B|-----0---0---0----0----0---0--0----0----0---0---0----0--------|
G|-----3---3---3----3----1---1--1----1----8---8---8----8--------|
D|--------------------------------------------------------------|
A|--------------------------------------------------------------|
E|---2----2------2-----0---0------0-----7---7-------7-----------|
   You said,  you     amaze  me   with  your songs
e|---------------------|
B|-----0---0---0----0--|
G|-----8---8---8----8--|
D|---------------------|
A|---------------------|
E|---7----7------7-----|

e|--------------------------------------------------------------|
B|-----0---0---0----0----0---0--0----0----0---0---0----0--------|
G|-----3---3---3----3----1---1--1----1----1---1---1----1--------|
D|--------------------------------------------------------------|
A|--------------------------------------------------------------|
E|---2----2------2-----0---0------0-----0---0-------0-----------|
   You said,  you amaaaaaaaaaaaaaaaaaaaaaaaaaaaaaaaaaaaaaaaze

Chorus

e|-------------------------------------------------------------|
B|---0---0--0----0-----0---0---0-----0------0---0---0-----0----|
G|---1---1--1----1-----8---8---8-----8------1---1---1-----1----|
D|-------------------------------------------------------------|
A|-------------------------------------------------------------|
E|0---0-------0-----7----7-------7-------0---0---------0-------|
  'Cause all i can offer is            when        i'm

e|---------------------|
B|-----0---0---0----0--|
G|-----8---8---8----8--|
D|---------------------|
A|---------------------|
E|---7----7------7-----|
   around


e|-------------------------------------------------------------|
B|---0---0--0----0-----0---0---0-----0------0---0---0-----0----|
G|---1---1--1----1-----8---8---8-----8------1---1---1-----1----|
D|-------------------------------------------------------------|
A|-------------------------------------------------------------|
E|0---0-------0-----7----7-------7-------0---0---------0-------|
    Take  me  away  and you will see     that all you get is

e|---------------------|
B|-----0---0---0----0--|
G|-----8---8---8----8--|
D|---------------------|
A|---------------------|
E|---7----7------7-----|
   sound


(go straight from the end of the chorus into the 2nd chord of the intro)
e|------------------------------------------|
B|-----0---0---0-----0-----0---0--0----0----|
G|-----6---6---6-----6-----1---1--1----1----|
D|------------------------------------------|
A|------------------------------------------|
E|---5---5--------5------0---0------0-------|
      oh      oh      oh
e|---------------------|
B|-----0---0---0----0--|
G|-----8---8---8----8--|
D|---------------------|
A|---------------------|
E|---7----7------7-----|


e|-----------------------------------------------------------------------|
B|-----0---0---0----0----0---0---0-----0-----0---0--0----0---------------|
G|-----8---8---8----8----6---6---6-----6-----1---1--1----1---------------|
D|-----------------------------------------------------------------------|
A|-----------------------------------------------------------------------|
E|---7----7------7-----5---5--------5------0---0------0------------------|
     OOOOOOOOOOOOOOOOOOOOooooooooooooooooooOOoooo


e|---------------------0---|
B|---0---0--0----0-----0---|
G|---1---1--1----1-----8---|
D|---------------------9---|
A|---------------------9---|
E|0---0-------0--------7---|

Enjoy!
Tap to rate this tab
# A B C D E F G H I J K L M N O P Q R S T U V W X Y Z