Hedley - Perfect tab

Im pretty sure this is right on.Please rate

e-------3---------------3---------|
b-1-0-1---1-0-1---1-0-1---1-0-1---|
g---------------2---------------3-|
d---------------------------------|
a---------------------------------|
E---------------------------------|


e-------3---------------3---------|
b-1-0-1---1-0-1---1-0-1---1-0-1-3-|
g---------------0-----------------|
d---------------------------------|
a---------------------------------|
E---------------------------------|
Tap to rate this tab
 
# A B C D E F G H I J K L M N O P Q R S T U V W X Y Z