Song name
# A B C D E F G H I J K L M N O P Q R S T U V W X Y Z

Hedley - Young tab

-------------------------------------------------------------------------------
                             Young - Hedley
-------------------------------------------------------------------------------
Tabbed by: Fernando Vizcarra

Tuning: Standard



INTRO

e|-----8--8-8-----8---8--8--8-----7--7-7-----5--5-5--------------------------|
B|-----8--8-8----10--10-10-10-----8--8-8-----6--6-6--------------------------|
G|-----9--9-9-----9---9--9--9-----9--9-9-----5--5-5--------------------------|
D|---------------------------------------------------------------------------|
A|---------------------------------------------------------------------------|
E|---------------------------------------------------------------------------|


VERSE

e|-----8--8-8-----8---8--8--8-----7--7-7-----5--5-5--------------------------|
B|-----8--8-8----10--10-10-10-----8--8-8-----6--6-6----------(x4)------------|
G|-----9--9-9-----9---9--9--9-----9--9-9-----5--5-5--------------------------|
D|---------------------------------------------------------------------------|
A|---------------------------------------------------------------------------|
E|---------------------------------------------------------------------------|

e|-----8--8-8-----8---8--8--8-----7--7-7-------------------------------------|
B|-----8--8-8----10--10-10-10-----8--8-8-----5/8--5/8--5/8-------------------|
G|-----9--9-9-----9---9--9--9-----9--9-9--------------------7-5---7-5--------|
D|--------------------------------------------------------------7------------|
A|---------------------------------------------------------------------------|
E|---------------------------------------------------------------------------|


CHORUS

e|---------------------------------------------------------------------------|
B|---------------------------------------------------------------------------|
G|-----5--5-5-----2-2-2-2-222------------------------------------------------|
D|-----5--5-5-----2-2-2-2-222-----2--2-2-----3---3----------(x6)-------------|
A|-----3--3-3-----0-0-0-0-000-----2--2-2-----3---3---------------------------|
E|--------------------------------0--0-0-----1---1---------------------------|


VERSE


CHORUS


BRIDGE

e|-----7-7-7-7-7-7-7-7-7-7-----5-5-5-5-5-5-5-5-5-5---------------------------|
B|-----8-8-8-8-8-8-8-8-8-8-----5-5-5-5-5-5-5-5-5-5----------(x3)-------------|
G|-----9-9-9-9-9-9-9-9-9-9-----5-5-5-5-5-5-5-5-5-5---------------------------|
D|---------------------------------------------------------------------------|
A|---------------------------------------------------------------------------|
E|---------------------------------------------------------------------------|

e|-----8-8-8-8-8-8-8-8-8-8----1010101010-------------------------------------|
B|----10101010101010101010----1212121212-------------------------------------|
G|----10101010101010101010----1212121212-------------------------------------|
D|---------------------------------------------------------------------------|
A|---------------------------------------------------------------------------|
E|---------------------------------------------------------------------------|


BREAKDOWN

e|---------------------------------------------------------------------------|
B|---------------------------------------------------------------------------|
G|-----5----5-----2-2-2-2-222------------------------------------------------|
D|-----5----5-----2-2-2-2-222-----2----2-----3----3--------------------------|
A|-----3----3-----0-0-0-0-000-----2----2-----3----3--------------------------|
E|--------------------------------0----0-----1----1--------------------------|

e|---------------------------------------------------------------------------|
B|---------------------------------------------------------------------------|
G|-----5----5-----2-2-2-2-222------------------------------------------------|
D|-----5----5-----2-2-2-2-222-----2----2---2/3-------------------------------|
A|-----3----3-----0-0-0-0-000-----2----2---2/3-------------------------------|
E|--------------------------------0----0---2/1-------------------------------|


CHORUS (x2)
Tap to rate this tab
# A B C D E F G H I J K L M N O P Q R S T U V W X Y Z