Song name
# A B C D E F G H I J K L M N O P Q R S T U V W X Y Z

Hedley - What Smiles Cant Afford tab

Hedley
What Smiles Can't Afford

Standard Tuning

Intro/Verse
E------------------------------------------------------------------|
B-----0-------0-------3-------3-------0-------0-------3-------0-1--|
G---0---0---0---0---0---0---0---0---0---0---0---0---0---0---0------|
D------------------------------------------------------------------|
A-2-------2-------3-------3----------------------------------------|
E---------------------------------3-------3-------2-------2--------|

Chorus
E-------------------------|
B-------------------------|
G-------------------------|
D--------5-x8---5-x16-----|
A-2-x8---3------2---------|
E-0-----------------------|

Bridge
E---------------|
B---------------|
G-------5-------|
D-7--3--5--5----|
A-7--3--3--5----|
E-5--1-----3----|

And there it is in a nutshell! Have fun!
Tap to rate this tab
# A B C D E F G H I J K L M N O P Q R S T U V W X Y Z