Song name
# A B C D E F G H I J K L M N O P Q R S T U V W X Y Z

Hedley - Gunnin tab

Help us improve GuitareTab! Take a short survey!
Intro:
e|-0-0-0x0000--------------------------------------------------------------|
B|-0-0-0x0001--------------------------------------------------------------|
G|-2-2-2x2222--------------------------------------------------------------|
D|-3-3-3x3333--------------------------------------------------------------|
A|-3-3-3x3333--------------------------------------------------------------|
E|-------------------------------------------------------------------------|

Verse:
e|-3-3333-3-3333-33-----------------3-3333-3-3333------------------------|
B|-3-3333-3-3333-33-----------------3-3333-3-3333------------------------|
G|-5-5555-5-5555-55--2-2222-2-2222--5-5555-5-5555--2-2222-2-2222---------|
D|-5-5555-5-5555-55--3-3333-3-3333--5-5555-5-5555--3-3333-3-3333---------|
A|-3-3333-3-3333-33--3-3333-3-3333--3-3333-3-3333--3-3333-3-3333---------|
E|-------------------1-1111-1-1111-----------------1-1111-1-1111---------|

Pre Chorus:
e|--00000000-----------------------------------------------------|
B|--00000000-----------------------------------------------------|
G|--22222222--444444444--222222222-------------------------------|
D|--22222222--555555555--333333333-------------------------------|
A|--00000000--555555555--333333333-------------------------------|
E|------------333333333--111111111-------------------------------|

Chorus:
e|--333333333333-------------------------------------------------|
B|--333333333333-------------------------------------------------|
G|--555555555555--4444444444444----2222222222--------------------|
D|--555555555555--5555555555555----3333333333--------------------|  X2
A|--333333333333--5555555555555----3333333333--------------------|
E|----------------3333333333333----1111111111--------------------|

Interlude:
e|--000000000000-----------------3333333333--------------------|
B|--111111111111-----------------3333333333--------------------|
G|--222222222222--2222222222222--5555555555--4444444444--------|
D|--222222222222--3333333333333--5555555555--5555555555--------|  X2
A|--000000000000--3333333333333--3333333333--5555555555--------|
E|----------------1111111111111--------------3333333333--------|

In parts of the song, like at the end of the verse and chorus, you can faintly her the 
part of the intro again, but it's not the same guitar as far as I know. But yeah. Just 
that in there if you want to. It doesn't make much of a difference.
Related for Gunnin tab