Song name
# A B C D E F G H I J K L M N O P Q R S T U V W X Y Z

Hedley - Trip Acoustic tab

(INTRO)
----0-0-0-0----0-0-0-0-----0-0-0-0----0-0-0-0---------------|
----0-0-0-0----0-0-0-0-----0-0-0-0----0-0-0-0---------------|
----1-1-1-1----4-4-4-4-----2-2-2-2----4-4-4-4---------------|
----2-2-2-2----4-4-4-4-----2-2-2-2----4-4-4-4---------------|    
----2-2-2-2----2-2-2-2-----0-0-0-0----2-2-2-2---------------|
----0-0-0-0----0-0-0-0-----0-0-0-0----0-0-0-0---------------|

----0-0-0-0----0-0-0-0-----0-0-0-0----0-0-0-0----0-0-0-0-----|
----0-0-0-0----0-0-0-0-----0-0-0-0----0-0-0-0----0-0-0-0-----|
----1-1-1-1----4-4-4-4-----2-2-2-2----4-4-4-4----4-4-4-4-----|
----2-2-2-2----4-4-4-4-----2-2-2-2----4-4-4-4----4-4-4-4-----|    
----2-2-2-2----2-2-2-2-----0-0-0-0----2-2-2-2----2-2-2-2-----|
----0-0-0-0----0-0-0-0-----0-0-0-0----0-0-0-0----0-0-0-0-----|


(VERSE 1)
----0-0-0-0----0-0-0-0-----0-0-0-0----0-0-0-0---------------|
----0-0-0-0----0-0-0-0-----0-0-0-0----0-0-0-0---------------|
----1-1-1-1----4-4-4-4-----2-2-2-2----4-4-4-4---------------|
----2-2-2-2----4-4-4-4-----2-2-2-2----4-4-4-4---------------|    (x3)
----2-2-2-2----2-2-2-2-----0-0-0-0----2-2-2-2---------------|
----0-0-0-0----0-0-0-0-----0-0-0-0----0-0-0-0---------------|


(CHORUS) 
----0-0-0-0----0-0-0-0-----0-0-0-0----0-0-0-0---------------|         
----0-0-0-0----0-0-0-0-----0-0-0-0----0-0-0-0---------------|
----1-1-1-1----4-4-4-4-----2-2-2-2----4-4-4-4---------------|
----2-2-2-2----4-4-4-4-----2-2-2-2----4-4-4-4---------------|         
----2-2-2-2----2-2-2-2-----0-0-0-0----2-2-2-2---------------|
----0-0-0-0----0-0-0-0-----0-0-0-0----0-0-0-0---------------|

----0-0-0-0----0-0-0-0-----0-0-0-0----0---0-0----------------|
----0-0-0-0----0-0-0-0-----0-0-0-0----0---0-0----------------|
----1-1-1-1----4-4-4-4-----2-2-2-2----4---2-1----------------|
----2-2-2-2----4-4-4-4-----2-2-2-2----4---2-2----------------|           
----2-2-2-2----2-2-2-2-----0-0-0-0----2---0-2----------------|
----0-0-0-0----0-0-0-0-----0-0-0-0----0---0-0----------------|

----0-0-0-0----0-0-0-0-----0-0-0-0----0-0-0-0---------------|
----0-0-0-0----0-0-0-0-----0-0-0-0----0-0-0-0---------------|
----1-1-1-1----4-4-4-4-----2-2-2-2----4-4-4-4---------------|
----2-2-2-2----4-4-4-4-----2-2-2-2----4-4-4-4---------------|          
----2-2-2-2----2-2-2-2-----0-0-0-0----2-2-2-2---------------|
----0-0-0-0----0-0-0-0-----0-0-0-0----0-0-0-0---------------|


(VERSE 2)
----0-0-0-0----0-0-0-0-----0-0-0-0----0-0-0-0---------------|
----0-0-0-0----0-0-0-0-----0-0-0-0----0-0-0-0---------------|
----1-1-1-1----4-4-4-4-----2-2-2-2----4-4-4-4---------------|
----2-2-2-2----4-4-4-4-----2-2-2-2----4-4-4-4---------------|     (x3)
----2-2-2-2----2-2-2-2-----0-0-0-0----2-2-2-2---------------|
----0-0-0-0----0-0-0-0-----0-0-0-0----0-0-0-0---------------|


And then close with the Chorus BUT at the very end, instead of closing with :
     ...   ---0-0-0-0---|                      --0---0---0----|
     ...   ---0-0-0-0---|                      --0---0---0----|
     ...   ---4-4-4-4---| close with this--->  --4---2---1----|
     ...   ---4-4-4-4---|                      --4---2---2----|
     ...   ---2-2-2-2---|                      --2---0---2----|
     ...   ---0-0-0-0---|                      --0---0---0----|
Tap to rate this tab
# A B C D E F G H I J K L M N O P Q R S T U V W X Y Z