Song name
# A B C D E F G H I J K L M N O P Q R S T U V W X Y Z

Hedley - Street Fight tab

Well, this is the first time this song has been tabbed, so be nice xD
Anyways, in the verses, I'm pretty sure it's not the right amount of strum things so yeah...
figure it out your self, it's not that hard.

Tabbed by: Sam Churney churnesa@student.ednet.ns.ca

Hedley

Street Fight

Standard Tuning: EADGBe

.= palm mute

~ = let ring


Verse 1:

e --------------------------------------------------------------------------|
B --------------------------------------------------------------------------|
G --------------------------------------------------------------------------|
D -9--9999999999999999999999999999--222222222222--999999999--13-13-11-11-9--|
A -9--9999999999999999999999999999--222222222222--999999999--13-13-11-11-9--|
E -7--7777777777777777777777777777--000000000000--777777777--11-11-9--9--7--|
      ............................  ............  .........


e --------------------------------------------------------------------------|
B --------------------------------------------------------------------------|
G --------------------------------------------------------------------------|
D --9--9999999999999999999999999999---222222222222---999999999----13-13-11--|
A --9--9999999999999999999999999999---222222222222---999999999----13-13-11--|
E --7--7777777777777777777777777777---000000000000---777777777----11-11-9---|
       ............................   ............   .........


e -------------------------|
B -------------------------|
G -------------------------|
D ---6~--4~--6~--4---------|
A ---6~--4~--6~--4---------|
E ---4~--2~--4~--2---------|
                 "out,out,out,out,out!"

Chorus!:


e -----------------------------------------------------|
B -----------------------------------------------------|
G -----------------------------------------------------|
D ----99999999--44444444--66666666--22222222-----------|
A ----99999999--44444444--66666666--22222222-----------|
E ----77777777--22222222--44444444--00000000-----------|


e -----------------------------------------------------|
B -----------------------------------------------------|
G -----------------------------------------------------|
D ----99999999--44444444---2222222--44444444--2222222--|
A ----99999999--44444444---2222222--44444444--2222222--|
E ----77777777--22222222---0000000--22222222--0000000--|


Verse 2:

e --------------------------------------------------------------------------|
B --------------------------------------------------------------------------|
G --------------------------------------------------------------------------|
D -9--9999999999999999999999999999--222222222222--999999999--13-13-11-11-9--|
A -9--9999999999999999999999999999--222222222222--999999999--13-13-11-11-9--|
E -7--7777777777777777777777777777--000000000000--77777777---11-11-9--9--7--|
      ............................  ............  .........


e -------------------------------------------------------------------------|
B -------------------------------------------------------------------------|
G -------------------------------------------------------------------------|
D --9--9999999999999999999999999999---222222222222---999999999----13-13-11-|
A --9--9999999999999999999999999999---222222222222---999999999----13-13-11-|
E --7--7777777777777777777777777777---000000000000---777777777----11-11-9--|
       ............................   ............   .........


e -------------------------|
B -------------------------|
G -------------------------|
D ---6~--4~--6~--4---------|
A ---6~--4~--6~--4---------|
E ---4~--2~--4~--2---------|
                 "out,out,out,out,out!"

Chorus2:


e -----------------------------------------------------|
B -----------------------------------------------------|
G -----------------------------------------------------|
D ----99999999--44444444--66666666--22222222-----------|
A ----99999999--44444444--66666666--22222222-----------|
E ----77777777--22222222--44444444--00000000-----------|


e -----------------------------------------------------|
B -----------------------------------------------------|
G -----------------------------------------------------|
D ----99999999--44444444---2222222--44444444--2222222--|
A ----99999999--44444444---2222222--44444444--2222222--|
E ----77777777--22222222---0000000--22222222--0000000--|


    He plays the second part of the chorus a bunch of times then
he plays the 7,9,9 once more then the picking:


e --------------------------------------|
B --------------------------------------|
G -----------4----------3-----------1---|
D ---------4---4------4--4--------2---2-|  x4
A ---1/2------------4-----------2-------|
E ---------------2------------0---------|

Then:


e --------------------------|
B --------------------------|
G --------------------------|    x about 6
D -------2222222--44444444--|
A -------2222222--44444444--|
E -------0000000--22222222--|


Bridgeish thingy:

e -----------------------------------------------------|
B -----------------------------------------------------|
G -----------------------------------------------------|
D ----99999999--44444444--66666666--22222222-----------|
A ----99999999--44444444--66666666--22222222-----------|
E ----77777777--22222222--44444444--00000000-----------|

e -----------------------------------------------------|
B -----------------------------------------------------|
G -----------------------------------------------------|
D ----99999999--44444444---2222222--44444444--2222222--|
A ----99999999--44444444---2222222--44444444--2222222--|
E ----77777777--22222222---0000000--22222222--0000000--|

Outro:


e ---------------------------------------------|
B ---------------------------------------------|
G ---------------------------------------------|
D ------44444444---2222222--44444444--2222222--|
A ------44444444---2222222--44444444--2222222--|
E ------22222222---0000000--22222222--0000000--|


That's it! Have fun!

-Sam Churney.

Any problems/ love mail? churnesa@student.ednet.ns.ca
Tap to rate this tab
# A B C D E F G H I J K L M N O P Q R S T U V W X Y Z