Song name
# A B C D E F G H I J K L M N O P Q R S T U V W X Y Z

Hedley - Villain tab

Help us improve GuitareTab! Take a short survey!
Hedley
Villain


k this is my first tab, the other one is tuned down half a step but thats just a pian in the ass
tabbed by : Dillon Burr

From hedleys first album

b = bend
x(lowercase) = palm mute
X(uppercase_ = mute with finger (dead string)
~ = vibrato
/ = slide up
\ = slide down

intro
just play until the verse starts

e|---2--2--2--2--2--2--2--2--2--2--2--2-----------------------------|
B|----0--0--0--0--0--0--0--0--0--0--0--0----------------------------|
G|--4--4--4--4--4--4--4--4--4--4--4--4--4---------------------------|
D|------------------------------------------------------------------|
A|------------------------------------------------------------------|
E|------------------------------------------------------------------|

verse
                      x  x
e|------------------------------------------------------------------|
B|------------------------------------------------------------------|
G|--------------------8--6----------------------9-------------------|
D|--6666--44--22222---8--6----6666--44--22222---9-------------------|
A|--6666--44--22222---6--4----6666--44--22222---7-------------------|
E|--4444--22--00000-----------4444--22--00000-----------------------|

                      x  x
e|---------------------------------------------|
B|---------------------------------------------|
G|--------------------8--6---------------------|
D|--6666--44--22222---8--6-----6666--44--------|
A|--6666--44--22222---6--4-----6666--44--------|
E|--4444--22--00000------------4444--22--------|

pre-chorus

e|--------------------------------|
B|--------------------------------|
G|--------------------------------|
D|--2222--4444--6666--9999--------|
A|--2222--4444--6666--9999--------|
E|--0000--2222--4444--7777--------|

chorus
                                      xxxx
e|-----------------------------------------------|
B|-----------------------------------------------|
G|-----------------------------------------------|
D|--22222222--44444444--666666666666--0000-------|
A|--22222222--44444444--666666666666--0000-------|
E|--00000000--22222222--444444444444--0000-------|

                                      xx
e|-----------------------------------------------|
B|-----------------------------------------------|
G|-----------------------------------------------|
D|--22222222--44444444--666666666666--00---------|
A|--22222222--44444444--666666666666--00---------|
E|--00000000--22222222--444444444444--00---------|


e|-----------------------------------------------|
B|-----------------------------------------------|
G|-----------------------------------------------|
D|--22-2--/44-4--/66-6--/99-9---22222222--44-----|
A|--22-2--/44-4--/66-6--/99-9---22222222--44-----|
E|--00-0--/22-2--/44-4--/77-7---00000000--22-----|

verse 2
                      x  x
e|----------------------------------------------2--2----------------|
B|-----------------------------------------------0--0---------------|
G|--------------------8--6---------------------4--4-----------------|
D|--6666--44--22222---8--6----6666--44--22222-----------------------|
A|--6666--44--22222---6--4----6666--44--22222-----------------------|
E|--4444--22--00000-----------4444--22--00000-----------------------|

e|---------------------------------------------|
B|---------------------------------------------|
G|--------------------8--6---------------------|
D|--6666--44--22222---8--6-----6666--44--------|
A|--6666--44--22222---6--4-----6666--44--------|
E|--4444--22--00000------------4444--22--------|

pre-chorus

e|--------------------------------|
B|--------------------------------|
G|--------------------------------|
D|--2222--4444--6666--9999--------|
A|--2222--4444--6666--9999--------|
E|--0000--2222--4444--7777--------|

chorus
                                      xxxx
e|-----------------------------------------------|
B|-----------------------------------------------|
G|-----------------------------------------------|
D|--22222222--44444444--666666666666--0000-------|
A|--22222222--44444444--666666666666--0000-------|
E|--00000000--22222222--444444444444--0000-------|

e|-----------------------------------------------|
B|-----------------------------------------------|
G|-----------------------------------------------|
D|--22222222--44444444--666666666666--00---------|
A|--22222222--44444444--666666666666--00---------|
E|--00000000--22222222--444444444444--00---------|

e|--------------------------------------------------------------|
B|--------------------------------------------------------------|
G|--------------------------------------------------------------|
D|--22-2--/44-4--/66-6--/99-9---22222222--44444444--------------|
A|--22-2--/44-4--/66-6--/99-9---22222222--44444444--------------|
E|--00-0--/22-2--/44-4--/77-7---00000000--22222222--------------|

bridge
e|---------------------------------|
B|---------------------------------|
G|---------------------------------|(play twice)
D|--666--444--999--66-44-66--------|
A|--XXX--XXX--XXX--XX-XX-XX--------|
E|--444--222--777--44-22-44--------|

solo

e|------------------------------------------------------------------|
B|---------------------------------7-4~------7-4-7~~~---------------|
G|---------------4-4-6b4---4b---4---------4-------------------------|
D|----4444~~~-4/6-6-----6~-----6-6--6----6-6--6-6-------------------|
A|------------------------------------------------------------------|
E|------------------------------------------------------------------|

    xxxxxxxx xxxx xxxx  xxxxxxxx xxxx xxxx
e|----------------------------------------------------|
B|----------------------------------------------------|
G|----------------------------------------------------|
D|--66666666-8888-9999--22222222-9999-7777------------|
A|--66666666-8888-9999--22222222-9999-7777------------|
E|--44444444-6666-7777--00000000-7777-5555------------|

   xxxxxxxx xxxx xxxx  xxxxxxxx 
e|----------------------------------------------------|
B|----------------------------------------------------|
G|---------------------------------88888888-----------|
D|--66666666-8888-9999--22222222---XXXXXXXX-----------|
A|--66666666-8888-9999--22222222---66666666-----------|
E|--44444444-6666-7777--00000000----------------------|

chorus

e|------------------------------------------------------------------|
B|------------------------------------------------------------------|
G|--99999999--1111111111111111--------------------------------------|
D|--XXXXXXXX--X-X-X-X-X-X-X-X---666-888-999-111111-131313-----------|
A|--77777777--9-9-9-9-9-9-9-9---XXX-XXX-XXX-X-X-X--X-X-X------------|
E|------------------------------444-666-777-9-9-9--111111-----------|

e|------------------------------------------------------------------|
B|------------------------------------------------------------------|
G|--99999999--1111111111111111--------------------------------------|
D|--XXXXXXXX--X-X-X-X-X-X-X-X---666-888-999-111111-131313-----------|
A|--77777777--9-9-9-9-9-9-9-9---XXX-XXX-XXX-X-X-X--X-X-X------------|
E|------------------------------444-666-777-9-9-9--111111-----------|

e|------------------------------------------|
B|------------------------------------------|
G|-66666666----------44444444---------------|
D|-66666666-22222222-44444444-44444444------|
A|-44444444-22222222-22222222-44444444------|
E|----------00000000----------22222222------|

e|------------------------------------------|
B|------------------------------------------|
G|-66666666----------44444444---------------|
D|-66666666-22222222-44444444-44444444------|
A|-44444444-22222222-22222222-44444444------|
E|----------00000000----------22222222------|

outro

e|--------------------------------------------------------------|
B|--------------------------------------------------------------|
G|--------------------------------------------------------------|
D|-22222222-44444444--666-888-999-111111-131313-----------------|
A|-22222222-44444444--XXX-XXX-XXX-X-X-X--X-X-X------------------|
E|-00000000-22222222--444-666-777-9-9-9--111111-----------------|

e|--------------------------------------------------------------|
B|--------------------------------------------------------------|
G|--------------------------------------------------------------|
D|-22222222-44444444--666-888-999-111111-131313-----------------|
A|-22222222-44444444--XXX-XXX-XXX-X-X-X--X-X-X------------------|
E|-00000000-22222222--444-666-777-9-9-9--111111-----------------|

e|--------------------------------------------------------------|
B|--------------------------------------------------------------|
G|-66666666-----------------------------------------------------|
D|-66666666-22222222--666-888-999-111111-131313-----------------|
A|-44444444-22222222--XXX-XXX-XXX-X-X-X--X-X-X------------------|
E|----------00000000--444-666-777-9-9-9--111111-----------------|

e|-------------------------------------------|
B|-------------------------------------------|
G|-------------------------------------------|
D|-------666-888-999-111111-131313-----------|(play twice)
A|-------XXX-XXX-XXX-X-X-X--X-X-X------------|
E|-------444-666-777-9-9-9--111111-----------|

e|--------------------|
B|--------------------|
G|--------------------|
D|---66---------------|
A|---66---------------|
E|---44---------------|


im pretty sure its all right
enjoy!

Related for Villain tab