Song name
# A B C D E F G H I J K L M N O P Q R S T U V W X Y Z

Heffron Drive - Quiet Please tab

Check out "Lost In Love" and "Elevate" chords by Big Time Rush, "Here Comes Forever" by 
R5, "Unpredictable" by 5 Seconds Of Summer solo! Thanks.]

http://en.wikipedia.org/wiki/Heffron_Drive

Standard Tuning
No Capo

(I don't know why some of the contractions have the symbols and such, so ignore that.)

In the parenthesis in the chorus the last time around, it's just the same as the chorus, 
but they used the first pre-chorus and made it as the background. So, yeah. Enjoy!

Intro:

e-5-5-5-5-3-3-3-3-2-2-2-2-0-0-0-0-----|
B-------------------------------------|
G-------------------------------------|
D-------------------------------------|
A-------------------------------------|
E-------------------------------------|

(Repeat 2x)

D G D... G D... G A

e-3-2---------------------------------|
B----3--------------------------------|
G-------------------------------------|
D-------------------------------------|
A-------------------------------------|
E-------------------------------------|

Verse 1:

D                                              G                  D
Step one begins again at an argument but we're still just friends
                                                       G                   D
We're eye to eye but we donít know why everything just comes and goes when
                                                                      G
And I really want to be with you and you really want to be with me so badly
A
But I can't control the way my heart feels when she looks right at me

Pre-Chorus 1:

D                                                G
You should know that youíre the something that I hold on to
                               D
When Iím left with nothing and eventually we will come back to each other
        A
But for now we're just not right

Iím lying again

Chorus:

D                          G                                  A
Every time you come around here watch my knees hit the ground You
D
In the window can't you see me?
G                       A
In the end itís all the same thing
D                               G
We'll make it till tomorrow and past the sorrow
A
Hope we never fall apart

I hope we never fall apart


Verse 2:
D                                                         G
So you wanna stay with me and its time that we sit and we talk in the bedroom
D                                                                 G
  And I donít wanna fight so we hold on tight to the words that I say

When I think of you
D
You come around every once in a while
     G
When you leave, you'll come back

And we'll roll at the beach, babe
    A
You walk out through the bedroom door and we laugh 'cause we always do the same thing


Pre-Chorus 2:

D
Whoíd have know if we'd gone forever
         G
That I'd write you a verse that you found clever
        D
And Iím saying it poetically

In hopes you don't see what I mean
   A
So read between the lines

Iím lying again


Chorus:

D                          G                                  A
Every time you come around here watch my knees hit the ground You
D
In the window can't you see me?
G                       A
In the end itís all the same thing
D                               G
We'll make it till tomorrow and past the sorrow
A
Hope we never fall apart

I hope we never fall apart

D                          G                                  A
Every time you come around here watch my knees hit the ground You
D
In the window can't you see me?
G                       A
In the end itís all the same thing
D                               G
We'll make it till tomorrow and past the sorrow
A
Hope we never fall apart

I hope we never fall apart


Bridge:
(Just a rough estimate)

e---------------------------------------------|
B---------------------------------------------|
G--2 (16x)-0 (8x)-----------------------------|
D-0--------------4 (10x)-2 (12x)--------------|
A---------------------------------------------|
E---------------------------------------------|

e--5-3-3-3-3-2--------------------------------|
B-3-------------------------------------------|
G---------------------------------------------|
D---------------------------------------------|
A---------------------------------------------|
E---------------------------------------------|

G
I'm lying again

e--5-3-3-3-3-2--------------------------------|
B-3-------------------------------------------|
G---------------------------------------------|
D---------------------------------------------|
A---------------------------------------------|
E---------------------------------------------|

D
I-I-I-I-I'm lying again

e--5-3-3-3-3-2--------------------------------|
B-3-------------------------------------------|
G---------------------------------------------|
D---------------------------------------------|
A---------------------------------------------|
E---------------------------------------------|

D                            A
I'm lying again (I'm lying again)
G
I'm lying again


Chorus:

D                          G                                  A
Every time you come around here watch my knees hit the ground You
D
In the window can't you see me?
G                       A
In the end itís all the same thing
D                               G
We'll make it till tomorrow and past the sorrow
A
Hope we never fall apart

I hope we never fall apart


(You should know that you're the something that I hold onto
When I'm left with nothing and)

D                          G                                  A
Every time you come around here watch my knees hit the ground You
D
In the window can't you see me?
G                       A
In the end itís all the same thing


(Eventually we will come back to each other
But for now we're just not right
I'm lying again)

D                               G
We'll make it till tomorrow and past the sorrow
A
Hope we never fall apart

I hope we never fall apart

Thanks! :-)
Tap to rate this tab
 
# A B C D E F G H I J K L M N O P Q R S T U V W X Y Z