Guitaretab - guitar tabs
Song name
# A B C D E F G H I J K L M N O P Q R S T U V W X Y Z

Heideroosjes - Iedereen Is Gek Behalve Jij tab

Heideroosjes - Iedereen is gek (behalve jij)
Tabbed by: lindapinda32@hotmail.com

Intro:
e |---------------------|
b |---------------------|
g |-5--5--5--5--5-------|
d |-5--5--5--5--5-------|
a |-3--3--3--3--3-------|
e |---------------------|

Couplet: palm-muted!
e |----------------------------------------------------------------------|
b |----------------------------------------------------------------------|
g |----------7--7--7--9--9--9--5--5--5------------7--7--7--9--9--9--7--5-|
d |-5--5--5--5--5--5--9--9--9--3--3--3---5--5--5--5--5--5--9--9--9--7--5-|
a |-5--5--5--5--5--5--7--7--7--3--3--3---5--5--5--5--5--5--7--7--7--5--3-|
e |-3--3--3------------------------------3--3--3-------------------------|
[ Tab from: http://www.guitaretab.com/h/heideroosjes/28769.html ]
Chorus:
e |----------------------------|	e |-----------------|
b |----------------------------|	b |-----------------|
g |--------------7--7--9--9----| 	g |-3--3--3--3------|
d |-5--5--5--5---5--5--9--9----|   	d |-5--5--5--5------|   
a |-5--5--5--5---5--5--7--7----|	a |-5--5--5--5------|
e |-3--3--3--3-----------------|	e |-----------------|

Bridge:
e |-1--1--0---------------|
b |-1--1--0---------------|
g |-2--2--2---------------|
d |-3--3--3----------2----|
a |-3--3--3------2/3------|
e |-1--1--0--0-----------|

e |-1--1--0---3--3--3-----|
b |-1--1--0---3--3--3-----|
g |-2--2--2---4--4--4-----|
d |-3--3--3---5--5--5-----|
a |-3--3--3---5--5--5-----|
e |-1--1--0--3--3--3-----|

Volgens mij klopt hij wel, voor hoe vaak je de coupletjes enzo moet spelen moet je maar
het liedje luisteren :)
Related for Iedereen Is Gek Behalve Jij tab