Guitaretab - guitar tabs
Song name
# A B C D E F G H I J K L M N O P Q R S T U V W X Y Z

Heideroosjes - Kutlied tab

De Heideroosjes - Kutlied
Tabbed by: JantjŻh van LeidŻh
The whole song is only G-E-C-D

couplet:

e|------------------------------------------------------------------|
B|------------------------------------------------------------------|
G|----------------------------------5-5-5-5-5-5-5-5-7-7-7-7-7-7-7-7-|
D|--5-5-5-5-5-5-5-5-2-2-2-2-2-2-2-2-5-5-5-5-5-5-5-5-7-7-7-7-7-7-7-7-|
A|--5-5-5-5-5-5-5-5-2-2-2-2-2-2-2-2-3-3-3-3-3-3-3-3-5-5-5-5-5-5-5-5-|
E|--3-3-3-3-3-3-3-3-0-0-0-0-0-0-0-0---------------------------------|

Refrein:

e|------------------------------------------------------------------|
B|------------------------------------------------------------------|
G|----------------------------------5-5-5-5-5-5-5-5-7-7-7-7-7-7-7-7-|
D|--5-5-5-5-5-5-5-5-2-2-2-2-2-2-2-2-5-5-5-5-5-5-5-5-7-7-7-7-7-7-7-7-|
A|--5-5-5-5-5-5-5-5-2-2-2-2-2-2-2-2-3-3-3-3-3-3-3-3-5-5-5-5-5-5-5-5-|
E|--3-3-3-3-3-3-3-3-0-0-0-0-0-0-0-0---------------------------------|

Intro: G-E-C-D (2x) strum each once

1e verse
het heeft een tijd geduurd, maar dit lied is eindelijk klaar
er komt straks nog wat geschreew, en gerag op een gitaar
niet dat het wat voorstelt maar ik dacht jah, ik zeg het maar vast
en mocht je ooit een clipje van ons zien, ik ben die kleine rare kwast

intro fast strum
[ Tab from: http://www.guitaretab.com/h/heideroosjes/28858.html ]
2e verse
'k ben nooit gevraagd voor zo'n jongensgroepje, want ik had teveel puisten
vrienden had ik ook een hele hoop, maar... nooit de juiste
met onze akelige rock 'n roll zullen wij het nooit ver schoppen
ik denk dat we na dit lied beter helemaal kunnen stoppen

refrein

want dit is een kutlied (kutlied, kutlied, kutlie-hied)
want dit is een kutlied, een kutlied, een gotvergeten kutlied
meer is het niet
want dit is een kutlied (kutlied, kutlied, kutlie-hied)
want dit is een kutlied, een kutlied, een gotvergeten kutlied
meer is het niet

3e verse
al die covers op de radio, wie koopt nou zulke troep?
Gejatte deuntjes met wegwerpteksten, ik vind 't allemaal poep
En ik weiger om gericht van die commerciŽle shit te schrijven
Dus ik vrees dat het bij dit puberaal gebral zal blijven

Refrein

Drum solo + guitar: G-E-C-D once
4e verse
Even een mededeling voor die rukkers van de bond tegen het vloeken
Ons adres staat op de hoes u hoeft dus niet ver meer te zoeken
Maar je moet wel heel idioot zijn om op zo'n slechte tekst te reageren
Nee, ik denk dat ik nog maar eens wat nieuwe rijmwoordjes ga leren

want dit is een kutlied (kutlied, kutlied, kutlie-hied)
want dit is een kutlied, een kutlied, een gotvergeten kutlied
meer is het niet
want dit is een kutlied (kutlied, kutlied, kutlie-hied)
want dit is een kutlied, een kutlied, een gotvergeten kutlied
meer is het niet

meer is het niet (4x)

want dit is een kutlie(kutlied, kutlied, kutlie-hied)
kutlied, kutlied, kutlied, kutlie-hied
kutlied, kutlied, kutlied, kutlie-hied
Related for Kutlied tab