Song name
# A B C D E F G H I J K L M N O P Q R S T U V W X Y Z

Heideroosjes - Das Toch Dope Man tab

De Heideroosjes – Da’s toch dope man.
Tabbed by – Michiel Peeters
Contact – michielos_@hotmail.com
Tab Nr. - 6

INTRO
E||-------------------------------------------------------|
B||-------------------------------------------------------|
G||--2-2--9--6--9--6--------------------------------------|
D||--2-2--9--6--9--6--2-----------------------------------| 4X
A||--0-0--7--4--7--4--2-----------------------------------|
E||-------------------0-----------------------------------|

PRE-VERSE
E||------------------------------------------------------|
B||------------------------------------------------------|
G||--2—8x-7-8x-2-8x-7-2x-6—7-----------------------------|
D||--2----7----2----x----x--x----------------------------|
A||--0----5----0----5----4--5----------------------------|
E||------------------------------------------------------|

VERSE
E||------------------------------------------------------|
B||------------------------------------------------------|
G||--2--7--2--2------------------------------------------|
D||--2--7--2--2------------------------------------------|
A||--0--5--0--0------------------------------------------|
E||------------------------------------------------------|


E||------------------------------------------------------|
B||------------------------------------------------------|
G||--2--7------------------------------------------------|
D||--2--7------------------------------------------------|
A||--0--5------------------------------------------------|
E||------------------------------------------------------|
Tap to rate this tab
# A B C D E F G H I J K L M N O P Q R S T U V W X Y Z