Song name
# A B C D E F G H I J K L M N O P Q R S T U V W X Y Z

Heideroosjes - Ik Wil Niks tab

De Heideroosjes – Ik wil niks!
Tabbed by – Michiel Peeters
Contact – michielos_@hotmail.com
Tab Nr. - 8

INTRO
E||------------------------------------------------------|
B||------------------------------------------------------|
G||--12~~----------XX12~~--------------------------------|1X
D||--12~~----------XX12~~--------------------------------|
A||--10~~----------XX10~~--------------------------------|
E||------------------------------------------------------|

VERSE
E||------------------------------------------------------|
B||------------------------------------------------------|
G||--11--9--7--9-----------------------------------------|4X
D||--11--9--7--9-----------------------------------------|
A||--9---7--5--7-----------------------------------------|
E||------------------------------------------------------|

CHORUS
E||------------------------------------------------------|
B||------------------------------------------------------|
G||---------12--11---------------------------------------|4X
D||--9--12--12--11---------------------------------------|
A||--9--12--10--9----------------------------------------|
E||--7--10-----------------------------------------------|
4TH time don’t play 9/11 and in an other rhythm

VERSE
E||------------------------------------------------------|
B||------------------------------------------------------|
G||--11--9--7--9-----------------------------------------|4X
D||--11--9--7--9-----------------------------------------|
A||--9---7--5--7-----------------------------------------|
E||------------------------------------------------------|

CHORUS
E||------------------------------------------------------|
B||------------------------------------------------------|
G||---------12--11---------------------------------------|4X
D||--9--12--12--11---------------------------------------|
A||--9--12--10--9----------------------------------------|
E||--7--10-----------------------------------------------|


BRIDGE
E||------------------------------------------------------|
B||------------------------------------------------------|
G||---------12--11---------------------------------------|4X
D||--9--12--12--11---------------------------------------|
A||--9--12--10--9----------------------------------------|
E||--7--10-----------------------------------------------|
(Same as chorus just in an other rhythm)

CHORUS
E||------------------------------------------------------|
B||------------------------------------------------------|
G||---------12--11---------------------------------------|4X
D||--9--12--12--11---------------------------------------|
A||--9--12--10--9----------------------------------------|
E||--7--10-----------------------------------------------|
Tap to rate this tab
# A B C D E F G H I J K L M N O P Q R S T U V W X Y Z