Song name
# A B C D E F G H I J K L M N O P Q R S T U V W X Y Z

Heideroosjes - Lekker Belangrijk tab

Artist: Heideroosjes
Track: Lekker Belangrijk
Album: Chapter 8 The Golden State

Tuning: Standard (EADGBe)
X= MUTE
/= SLIDE UP
>= PLACTRUM SLIDE
#= DON'T PLAY STRING

INTRO/VERSE: PLAY THIS 8 TIMES
e|--------------|
B|--------------|
G|-66-44-6-66---|
D|-66-44-6-66---|
A|-44-22-4-44---|
E|--------------|

THEN MUTE
e|-----------------|
B|-----------------|
G|-X-X-X-X-X-X-X-X-|
D|-X-X-X-X-X-X-X-x-|
A|-X-X-X-X-X-X-X-X-|
E|-----------------|

CHORUS:
e|------------------------------------------------------------|
B|------------------------------------------------------------|
G|------------------------------------------------------------|
D|-44444444-88888888-6666-4444-6666-4444-------------88888888-|
A|-44444444-88888888-6666-4444-6666-4444-------------88888888-|
E|-22222222-66666666-4444-2222-4444-2222-2-2-2-2-2-2-66666666-|

INTERLUDE:
e|-12--12--12--13-15--15--15--13-12/-|
B|---13--13--13-----13--13--13-------|
G|-----------------------------------|
D|-----------------------------------|
A|-----------------------------------|
E|-----------------------------------|

VERSE: PLAY THIS 4 TIMES
e|--------------|
B|--------------|
G|-66-44-6-66---|
D|-66-44-6-66---|
A|-44-22-4-44---|
E|--------------|

PRE-CHORUS:
e|--------------------|
B|--------------------|
G|--------------------|
D|-44444444-88888888/-|
A|-44444444-88888888/-|
E|-22222222-66666666/-|

VERSE: PLAY THIS 2 TIMES (PLAY MUTE AFTER LAST TIME)
e|--------------|-----|
B|--------------|-----|
G|-66-44-6-66---|XX-X-|
D|-66-44-6-66---|XX-X-|
A|-44-22-4-44---|XX-X-|
E|--------------|-----|

CHORUS:
e|------------------------------------------------------------|
B|------------------------------------------------------------|
G|------------------------------------------------------------|
D|-44444444-88888888-6666-4444-6666-4444-------------88888888-|
A|-44444444-88888888-6666-4444-6666-4444-------------88888888-|
E|-22222222-66666666-4444-2222-4444-2222-2-2-2-2-2-2-66666666-|

BRIDGE part 1:
e|-12--12--12--13-15--15--15--13-|
B|---13--13--13-----13--13--13---|
G|-------------------------------|
D|-------------------------------|PLAY THIS 3 TIMES
A|-------------------------------|
E|-------------------------------|

THEN
e|-12--12--13--13---13/-|
B|---13--13--13--13-13/-|
G|----------------------|
D|----------------------|
A|----------------------|
E|----------------------|

BRIDGE part 2:
e|---------------------------|
B|---------------------------|
G|-6~--------6~--------------|
D|-6~---6~---6~---6~---------|
A|-4~---6~---4~---6~--->>>>>-|
E|------4~--------4~--->>>>>-|

END CHORUS part 1:
e|--------------------------------------|
B|--------------------------------------|
G|--------------------------------------|
D|-44444444-88888888-6666-4444-66666666-|
A|-44444444-88888888-6666-4444-66666666-|
E|-22222222-66666666-4444-2222-44444444-|

END CHORUS part 2:
e|--------------------------------------------------------|
B|--------------------------------------------------------|
G|-------------------66666666xx66666666-------------------|
D|-44444444-88888888-66666666xx66666666-44444444-88888888-|
A|-44444444-88888888-44444444xx44444444-44444444-88888888-|
E|-22222222-66666666--------------------22222222-66666666-|

OUTRO part 1:
e|------------------------------|
B|------------------------------|
G|-3---8-10---8-3---8-10---8-3--|
D|-#---#--#---#-#---#--#---#-3--|
A|-5--10-12--10-5--10-12--10-5--|
E|------------------------------|


OUTRO part 2:
e|-12--12--12--13-15--15--15--13-|
B|---13--13--13-----13--13--13---|
G|-------------------------------|
D|-------------------------------|
A|-------------------------------|
E|-------------------------------|

e|-12--12--12--13-15--15--15--13-12~~-|
B|---13--13--13-----13--13--13--------|
G|------------------------------------|
D|------------------------------------|
A|------------------------------------|
E|------------------------------------|

Here Is An Add-on at the end of OUTRO part 2.
It gives an finishing touch ;)

e|-12~~-|--12/-|
B|------|--13/-|
G|------|------|
D|------|------|
A|------|------|
E|------|------|

I'm sure this is OK, just listen to the track
and you'll be able to work it out. 

For any suggestions or questions email at: michael@mipani.nl
Tap to rate this tab
 
# A B C D E F G H I J K L M N O P Q R S T U V W X Y Z