Guitaretab - guitar tabs
Song name
# A B C D E F G H I J K L M N O P Q R S T U V W X Y Z

Heinz Aus Wien - Wenn Ich 18 Bin tab

alright, that's my first tab but it wasn't difficult... cool band... cool song...
enjoy playing it...

+ = P.M.

Intro/distortion
E ---------------------------------------------------------------------|
B ---------------------------------------------------------------------|
G ---------------------------------3-3-3-3-3-3-3-3-5-5-5-5-5-5-5-5-----|
D -5-5-5-5-5-5-5-5-7-7-7-7-7-7-7-7-3-3-3-3-3-3-3-3-5-5-5-5-5-5-5-5-----|
A -5-5-5-5-5-5-5-5-7-7-7-7-7-5-7-7-1-1-1-1-1-1-1-1-3-3-3-3-3-3-3-3-----|
E -3-3-3-3-3-3-3-3-5-5-5-5-5-5-5-5-------------------------------------|

E ---------------------------------------------------------------------|
B ---------------------------------------------------------------------|
G ---------------------------------3-3-3-3-3-3-3-3-5-------------------|
D -5-5-5-5-5-5-5-5-7-7-7-7-7-7-7-7-3-3-3-3-3-3-3-3-5-let ring----------|
A -5-5-5-5-5-5-5-5-7-7-7-7-7-5-7-7-1-1-1-1-1-1-1-1-3-------------------|
E -3-3-3-3-3-3-3-3-5-5-5-5-5-5-5-5-------------------------------------|


Verse/clean		  distortion
E -------------------------------------------------------|
B -------------------------------------------------------|
G --0-0-0-0-0-0-0-0------5-5-5-5-5-5-5-5-5-5-5-5-5-5-5-5-|
D -5-5-5-5-4-4-4-4(12x)-5-5-5-5-5-5-5-5-5-5-5-5-5-5-5-5-|
A -----------------------3-3-3-3-3-3-3-3-3-3-3-3-3-3-3-3-|
E -------------------------------------------------------|
			  + + + + + + + + + + + +

Chorus/distortion
E ----------------------------------------------------------------------|
B ----------------------------------------------------------------------|
G ---------------------------------3-3-3-3-3-3-3-3-5-5-5-5-5-5-5-5------|
D -5-5-5-5-5-5-5-5-7-7-7-7-7-7-7-7-3-3-3-3-3-3-3-3-5-5-5-5-5-5-5-5------|(3x)
A -5-5-5-5-5-5-5-5-7-7-7-7-7-5-7-7-1-1-1-1-1-1-1-1-3-3-3-3-3-3-3-3------|
E -3-3-3-3-3-3-3-3-5-5-5-5-5-5-5-5--------------------------------------|
[ Tab from: http://www.guitaretab.com/h/heinz-aus-wien/101332.html ]
E ---------------------------------------------------------------------|
B ---------------------------------------------------------------------|
G ---------------------------------3-3-3-3-3-3-3-3-5-------------------|
D -5-5-5-5-5-5-5-5-7-7-7-7-7-7-7-7-3-3-3-3-3-3-3-3-5-let ring----------|
A -5-5-5-5-5-5-5-5-7-7-7-7-7-5-7-7-1-1-1-1-1-1-1-1-3-------------------|
E -3-3-3-3-3-3-3-3-5-5-5-5-5-5-5-5-------------------------------------|


2nd Chorus + during Solo
E ----------------------------------------------------------------------|
B ----------------------------------------------------------------------|
G ---------------------------------3-3-3-3-3-3-3-3-5-5-5-5-5-5-5-5------|
D -5-5-5-5-5-5-5-5-7-7-7-7-7-7-7-7-3-3-3-3-3-3-3-3-5-5-5-5-5-5-5-5(11---|x)
A -5-5-5-5-5-5-5-5-7-7-7-7-7-5-7-7-1-1-1-1-1-1-1-1-3-3-3-3-3-3-3-3------|
E -3-3-3-3-3-3-3-3-5-5-5-5-5-5-5-5--------------------------------------|

E ---------------------------------------------------------------------|
B ---------------------------------------------------------------------|
G ---------------------------------3-3-3-3-3-3-3-3-5-------------------|
D -5-5-5-5-5-5-5-5-7-7-7-7-7-7-7-7-3-3-3-3-3-3-3-3-5-let ring----------|
A -5-5-5-5-5-5-5-5-7-7-7-7-7-5-7-7-1-1-1-1-1-1-1-1-3-------------------|
E -3-3-3-3-3-3-3-3-5-5-5-5-5-5-5-5-------------------------------------|


Solo
E ---------------------------------------------------------------------|
B -12-10----10-12-10----10-11-10----10-15-15-15-15---------------------|
G -------12----------12----------12------------------------------------|
E -------------------------------------------------10-9-10-9-10-9-10-9-|
B 12-11-12-11-12-11-12-11-12-11-12-11-12-11-12-11---------------------|
G ---------------------------------------------------------------------|

E -12-12-10-12-10------------------------------------------------------|
B ---------------------------------------------------------------------|
G ---------------------------------------------------------------------|
D ---------------------------------------------------------------------|
A ---------------------------------------------------------------------|
E ---------------------------------------------------------------------|

Outro
E -----------------------|
B -----------------------|
G --0-0-0-0-0-0-0-0------|
D -5-5-5-5-4-4-4-4(8x)--|
A -----------------------|
E -----------------------|


Intro
Verse
Chorus
Verse
2nd Chorus + during Solo
Solo
Outro
Related for Wenn Ich 18 Bin tab