Guitaretab - guitar tabs
Song name
# A B C D E F G H I J K L M N O P Q R S T U V W X Y Z

Heinz Aus Wien - Bitte Sprich Mich Einfach An tab

Intro Distortion
E|---------------------------------------------------------------------|
B|---------------------------------------------------------------------|
G|---------------------------------------------------------------------|
D|-6-7-2-2-2-2-2-2-2-2-4-4-4-4-4-4-4-4-2-2-2-2-2-2-2-2-4-4-4-4-4-4-4-4-|
A|-6-7-2-2-2-2-2-2-2-2-4-4-4-4-4-4-4-4-2-2-2-2-2-2-2-2-4-4-4-4-4-4-4-4-|
E|-4-5-0-0-0-0-0-0-0-0-2-2-2-2-2-2-2-2-0-0-0-0-0-0-0-0-2-2-2-2-2-2-2-2-|


Verse Distortion
E|-----------------------------------------------------------------|
B|-----------------------------------------------------------------|
G|-----------------------------------------------------------------|2 times
D|-2-2-2-2-2-2-2-2-4-4-4-4-4-4-4-4-2-2-2-2-2-2-2-2-4-4-4-4-4-4-4-4-|
A|-2-2-2-2-2-2-2-2-4-4-4-4-4-4-4-4-2-2-2-2-2-2-2-2-4-4-4-4-4-4-4-4-|
E|-0-0-0-0-0-0-0-0-2-2-2-2-2-2-2-2-0-0-0-0-0-0-0-0-2-2-2-2-2-2-2-2-|

E|-----------------------------------------------------------------|
B|-----------------------------------------------------------------|
G|-----------------------------------------------------------------|
D|-2-2-2-2-2-2-2-2-4-4-4-4-4-4-4-4-6-6-6-6-6-6-6-6-7-7-7-7-7-7-7-7-|
A|-2-2-2-2-2-2-2-2-4-4-4-4-4-4-4-4-6-6-6-6-6-6-6-6-7-7-7-7-7-7-7-7-|
E|-0-0-0-0-0-0-0-0-2-2-2-2-2-2-2-2-4-4-4-4-4-4-4-4-5-5-5-5-5-5-5-5|

E|----------|
B|----------|
G|----------|
D|--7-7-7-|
A|--7-7-7-|
E|--5--5--5-|

Chorus distortion
E|-----------------------------------------------------------------|
B|-----------------------------------------------------------------|
G|-----------------4-4-4-4-4-4-4-4---------------------------------|
D|-2-2-2-2-2-2-2-2-4-4-4-4-4-4-4-4-6-6-6-6-6-6-6-6-7-7-7-7-7-7-7-7-|3 times
A|-2-2-2-2-2-2-2-2-2-2-2-2-2-2-2-2-6-6-6-6-6-6-6-6-7-7-7-7-7-7-7-7-|
E|-0-0-0-0-0-0-0-0-----------------4-4-4-4-4-4-4-4-5-5-5-5-5-5-5-5|

E|-----------------------------------------------------------------|
B|-----------------------------------------------------------------|
G|-----------------4-4-4-4-4-4-4-4---------------------------------|
D|-2-2-2-2-2-2-2-2-4-4-4-4-4-4-4-4-7-7-7-7-7-7-7-7-7-7-7-7-7-7-7-7-|
A|-2-2-2-2-2-2-2-2-2-2-2-2-2-2-2-2-7-7-7-7-7-7-7-7-7-7-7-7-7-7-7-7-|
E|-0-0-0-0-0-0-0-0-----------------5-5-5-5-5-5-5-5-5-5-5-5-5-5-5-5|
[ Tab from: http://www.guitaretab.com/h/heinz-aus-wien/102033.html ]
Second Verse distortion
E|-----------------------------------------------------------------|
B|-----------------------------------------------------------------|
G|-----------------------------------------------------------------|3 times
D|-2-2-2-2-2-2-2-2-4-4-4-4-4-4-4-4-2-2-2-2-2-2-2-2-4-4-4-4-4-4-4-4-|
A|-2-2-2-2-2-2-2-2-4-4-4-4-4-4-4-4-2-2-2-2-2-2-2-2-4-4-4-4-4-4-4-4-|
E|-0-0-0-0-0-0-0-0-2-2-2-2-2-2-2-2-0-0-0-0-0-0-0-0-2-2-2-2-2-2-2-2-|

E|-----------------------------------------------------------------|
B|-----------------------------------------------------------------|
G|-----------------------------------------------------------------|
D|-2-2-2-2-2-2-2-2-4-4-4-4-4-4-4-4-6-6-6-6-6-6-6-6-7-7-7-7-7-7-7-7-|
A|-2-2-2-2-2-2-2-2-4-4-4-4-4-4-4-4-6-6-6-6-6-6-6-6-7-7-7-7-7-7-7-7-|
E|-0-0-0-0-0-0-0-0-2-2-2-2-2-2-2-2-4-4-4-4-4-4-4-4-5-5-5-5-5-5-5-5|

E|----------|
B|----------|
G|----------|
D|--7-7-7-|
A|--7-7-7-|
E|--5--5--5-|

Chorus Again

Interlude
E|-----------------------------------------------------------------|
B|-----------------------------------------------------------------|
G|-----------------------------------------------------------------|
D|-7-7-7-7-7-7-7-7-6-6-6-6-6-6-6-6-4-4-4-4-4-4-4-4-2-2-2-2-2-2-2-2-|
A|-7-7-7-7-7-7-7-7-6-6-6-6-6-6-6-6-4-4-4-4-4-4-4-4-22-2-2-2-2-2-2-|
E|-5-5-5-5-5-5-5-54-4-4-4-4-4-4-4-2-2-2-2-2-2-2-2-0-0-0-0-0-0-0-0-|

E|-----------------------------------------------------------------|
B|-----------------------------------------------------------------|
G|-----------------------------------------------------------------|
D|-7-7-7-7-7-7-7-7-6-6-6-6-6-6-6-6-4-4-4-4-4-4-4-4-4-4-4-4-4-4-6-6-|
A|-7-7-7-7-7-7-7-7-6-6-6-6-6-6-6-6-4-4-4-4-4-4-4-4-4-4-4-4-4-4-6-6-|
E|-5-5-5-5-5-5-5-54-4-4-4-4-4-4-4-2-2-2-2-2-2-2-2-2-2-2-2-2-2-4-4-|

E|-----------------------------------------------------------------|
B|-----------------------------------------------------------------|
G|-----------------------------------------------------------------|
D|-7-7-7-7-7-7-7-7-6-6-6-6-6-6-6-6-4-4-4-4-4-4-4-4-2-2-2-2-2-2-2-2-|
A|-7-7-7-7-7-7-7-7-6-6-6-6-6-6-6-6-4-4-4-4-4-4-4-4-22-2-2-2-2-2-2-|
E|-5-5-5-5-5-5-5-54-4-4-4-4-4-4-4-2-2-2-2-2-2-2-2-0-0-0-0-0-0-0-0-|

E|------------------------------------------|
B|------------------------------------------|
G|------------------------------------------|
D|-7-7-7-7-7-7-7-7-6-6-6-6-6-6-6-6-4----6-7-|
A|-7-7-7-7-7-7-7-7-6-6-6-6-6-6-6-6-4----6-7-|
E|-5-5-5-5-5-5-5-54-4-4-4-4-4-4-4-2----4-5-|

Chorus again

Outro

E|--------------|
B|--------------|
G|--------------|
D|-2----------2-|
A|-2-let ring-2-|
E|-0----------0-|

Related for Bitte Sprich Mich Einfach An tab