Guitaretab - guitar tabs
Song name
# A B C D E F G H I J K L M N O P Q R S T U V W X Y Z

Heinz Aus Wien - Ich Wr Gern Johnny Depp tab

Intro Distortion
E|-----------------------------------------------------------------|
B|-----------------------------------------------------------------|
G|-7-7-7-7-7-7-7-7-x-x-x-x-x-x-x-x-7-7-7-7-7-7-7-7-x-x-x-x-x-x-x-x-|2 times
D|-7-7-7-7-7-7-7-7-x-x-x-x-x-x-x-x-7-7-7-7-7-7-7-7-x-x-x-x-x-x-x-x-|
A|-5-5-5-5-5-5-5-5-x-x-x-x-x-x-x-x-5-5-5-5-5-5-5-5-x-x-x-x-x-x-x-x-|
E|-----------------------------------------------------------------|


Verse Distortion
E|-----------------------------------------------------------------|
B|-----------------------------------------------------------------|
G|-7-7-7-7-7-7-7-7-7-7-7-7-7-7-7-7---------------------------------|
D|-7-7-7-7-7-7-7-7-7-7-7-7-7-7-7-7-5-5-5-5-5-5-5-5-5-5-5-5-5-5-5-5-|
A|-5-5-5-5-5-5-5-5-5-5-5-5-5-5-5-5-5-5-5-5-5-5-5-5-5-5-5-5-5-5-5-5-|
E|---------------------------------3-3-3-3-3-3-3-3-3-3-3-3-3-3-3-3-|

E|-----------------------------------------------------------------|
B|-----------------------------------------------------------------|
G|-----------------------------------------------------------------|
D|-2-2-2-2-2-2-2-2-2-2-2-2-2-2-2-2-5-5-5-5-5-5-5-5-5-5-5-5-5-5-5-5-|
A|-2-2-2-2-2-2-2-2-2-2-2-2-2-2-2-2-5-5-5-5-5-5-5-5-5-5-5-5-5-5-5-5-|
E|-0-0-0-0-0-0-0-0-0-0-0-0-0-0-0-0-3-3-3-3-3-3-3-3-3-3-3-3-3-3-3-3-|

E|-----------------------------------------------------------------|
B|-----------------------------------------------------------------|
G|-7-7-7-7-7-7-7-7-7-7-7-7-7-7-7-7---------------------------------|
D|-7-7-7-7-7-7-7-7-7-7-7-7-7-7-7-7-5-5-5-5-5-5-5-5-5-5-5-5-5-5-5-5-|
A|-5-5-5-5-5-5-5-5-5-5-5-5-5-5-5-5-5-5-5-5-5-5-5-5-5-5-5-5-5-5-5-5-|
E|---------------------------------3-3-3-3-3-3-3-3-3-3-3-3-3-3-3-3-|

E|------------------------------------------------------------|
B|------------------------------------------------------------|
G|------------------------------------------------------------|
D|-2-2-2-2-2-2-2-2-2-2-2-2-2-2-2-2-5-5-5-5-5-5-5-5-5-5-5-5-5--|
A|-2-2-2-2-2-2-2-2-2-2-2-2-2-2-2-2-5-5-5-5-5-5-5-5-5-5-5-5-5--|
E|-0-0-0-0-0-0-0-0-0-0-0-0-0-0-0-0-3-3-3-3-3-3-3-3-3-3-3-3-3--|

[ Tab from: http://www.guitaretab.com/h/heinz-aus-wien/102037.html ]
Pre Chorus Distortion
E|-------------------------------------------------------------------|
B|-------------------------------------------------------------------|
G|-7-7-7-7-7-7-7-7-7-7-7-7-7-7-7-7-4-4-4-4-4-4-4-4-4-----------------|
D|-5-5-5-5-5-5-5-5-4-4-4-4-4-4-4-4-2-2-2-2-2-2-2-2-2-5-5-5-5-5-5-5-5-|2
A|---------------------------------------------------3-3-3-3-3-3-3-3-|times
E|------------------------------------------------------------------|

E|-------------------------------------------------|
B|-------------------------------------------------|
G|-----------------7-7-7-7-7-7-7-7-7-7-7-7-7-7-7-7-|
D|-5-5-5-5-5-5-5-5-7-7-7-7-7-7-7-7-7-7-7-7-7-7-7-7-|
A|-3-3-3-3-3-3-3-3-5-5-5-5-5-5-5-5-5-5-5-5-5-5-5-5-|
E|-------------------------------------------------|

Chorus distortion
E|-----------------------------------------------------------------|
B|-----------------------------------------------------------------|
G|-7-7-7-7-7-7-7-7-----------------4-4-4-4-4-4-4-4-----------------|3 times
D|-77-7-7-7-7-7-7-7-7-7-7-7-7-7-7-4-4-4-4-4-4-4-4-5-5-5-5-5-5-5-5-|
A|-5-5-5-5-5-5-5-5-7-7-7-7-7-7-7-7-2-2-2-2-2-2-2-2-5-5-5-5-5-5-5-5-|
E|----------------5-5-5-5-5-5-5-5-----------------3-3-3-3-3-3-3-3-|

E|-----------------------------------------------------------------|
B|-----------------------------------------------------------------|
G|-7-7-7-7-7-7-7-7-------------------------------------------------|
D|-77-7-7-7-7-7-7-7-7-7-7-7-7-7-7-5-5-5-5-5-5-5-5-5-5-5-5-5-5-5-5-|
A|-5-5-5-5-5-5-5-5-7-7-7-7-7-7-7-7-5-5-5-5-5-5-5-5-5-5-5-5-5-5-5-5-|
E|----------------5-5-5-5-5-5-5-5-3-3-3-3-3-3-3-3-3-3-3-3-3-3-3-3-|

Intro(just 1 time)

Verse

Pre Chorus

Chorus

Pre Chorus (just 1st part)

Solo
E|------------------------------------------------------------------------|
B|------------------------------------------------------------------------|
G|7-7-12-11-7-7-11-9-4-4-9--------9-7-7-7-12-11-7-7-11-9-4-4-9--------8^-7|
D|5-5-------4-4------2-2---10-5-5-----5-5-------4-4------2-2---10-5-5-----|
A|-----------------------------3-3---------------------------------3-3----|
E|-----------------------------------------------------------------------|

E|---------------------------------|
B|---------------------------------|
G|-7-7-7-7-7-7-7-7-7-7-7-7-7-7-7-7-|
D|-7-7-7-7-7-7-7-7-7-7-7-7-7-7-7-7-|
A|-5-5-5-5-5-5-5-5-5-5-5-5-5-5-5-5-|
E|---------------------------------|

Chorus

Chorus (just 1st part)

Outro
E|--------------------|
B|--------------------|
G|-7------------------|
D|-7--7---5----------|
A|-5---7---5-let ring-|
E|-----5---3----------|


Related for Ich Wr Gern Johnny Depp tab