Song name
# A B C D E F G H I J K L M N O P Q R S T U V W X Y Z

Heinz Aus Wien - Fuballspielen tab

Intro (destroyed Guitar)


E-------------------------------------------|
H-------------------------------------------|
G-------------8-8-10-10-------------6-6-8-8-|
D--6--6--6-6--8-8-10-10--8--8--8-8--6-6-8-8-|
A--6--6--6-6--6-6-8 -8---8--8--8-8--4-4-6-6-|
E--4--4--4-4-------------6--6--6-6----------|

E--------------------------------------------------------|
H--------------------------------------------------------|
G-------------8-8-10-10------------------6-x-6-x-6-x-6-x-|
D--6--6--6-6--8-8-10-10--8-x-8-x-8-x-8-x-6-x-6-x-6-x-6-x-|
A--6--6--6-6--6-6-8 -8---8-x-8-x-8-x-8-x-4-x-4-x-4-x-6-x-|
E--4--4--4-4-------------6-x-6-x-6-x-6-x-----------------|


VERSE (clean guitar)

E-------------------------------------------------------|
H-------------------------------------------------------|
G-------------------------8--8--8-8--10--10--10-10------|       4x
D--6--6--6-6--6--6--6--6--8--8--8-8--10--10--10-10------|
A--6--6--6-6--6--6--6--6--6--6--6-6--8---8---8--8-------|
E--4--4--4-4--4--4--4--4--------------------------------|

REF  (destroyed)

E-------------------------------------------------------|
H-------------------------------------------------------|
G-------------------------8--8--8-8--10--10--10-10------|       3x
D--6--6--6-6--6--6--6--6--8--8--8-8--10--10--10-10------|
A--6--6--6-6--6--6--6--6--6--6--6-6--8---8---8--8-------|
E--4--4--4-4--4--4--4--4--------------------------------|

E----------------------------------|
H----------------------------------|
G------------------6-x-6-x-6-x-6-x-|
D--8-x-8-x-8-x-8-x-6-x-6-x-6-x-6-x-|
A--8-x-8-x-8-x-8-x-4-x-4-x-4-x-6-x-|
E--6-x-6-x-6-x-6-x-----------------|


VERSE (clean guitar)

E-------------------------------------------------------|
H-------------------------------------------------------|
G-------------------------8--8--8-8--10--10--10-10------|       4x
D--6--6--6-6--6--6--6--6--8--8--8-8--10--10--10-10------|
A--6--6--6-6--6--6--6--6--6--6--6-6--8---8---8--8-------|
E--4--4--4-4--4--4--4--4--------------------------------|

REF  (destroyed)

E-------------------------------------------------------|
H-------------------------------------------------------|
G-------------------------8--8--8-8--10--10--10-10------|       3x
D--6--6--6-6--6--6--6--6--8--8--8-8--10--10--10-10------|
A--6--6--6-6--6--6--6--6--6--6--6-6--8---8---8--8-------|
E--4--4--4-4--4--4--4--4--------------------------------|

E----------------------------------|
H----------------------------------|
G------------------6-x-6-x-6-x-6-x-|
D--8-x-8-x-8-x-8-x-6-x-6-x-6-x-6-x-|
A--8-x-8-x-8-x-8-x-4-x-4-x-4-x-6-x-|
E--6-x-6-x-6-x-6-x-----------------|

Bridge      (destroyed)

E----------------------------------------------------|
H----------------------------------------------------|
G-------------8-8-10-10------------------------------|
D--6--6--6-6--8-8-10-10--8-x-x-x-x-x-x-x-------------|            3x
A--6--6--6-6--6-6-8 -8---8-x-x-x-x-x-x-x-------------|
E--4--4--4-4-------------6-x-x-x-x-x-x-x-------------|


E----------------------------------|
H----------------------------------|
G------------------6-x-6-x-6-x-6-x-|
D--8-x-8-x-8-x-8-x-6-x-6-x-6-x-6-x-|
A--8-x-8-x-8-x-8-x-4-x-4-x-4-x-6-x-|
E--6-x-6-x-6-x-6-x-----------------|

REF  (destroyed)

E-------------------------------------------------------|
H-------------------------------------------------------|
G-------------------------8--8--8-8--10--10--10-10------|       3x
D--6--6--6-6--6--6--6--6--8--8--8-8--10--10--10-10------|
A--6--6--6-6--6--6--6--6--6--6--6-6--8---8---8--8-------|
E--4--4--4-4--4--4--4--4--------------------------------|

E----------------------------------|
H----------------------------------|
G------------------6-x-6-x-6-x-6-x-|
D--8-x-8-x-8-x-8-x-6-x-6-x-6-x-6-x-|
A--8-x-8-x-8-x-8-x-4-x-4-x-4-x-6-x-|
E--6-x-6-x-6-x-6-x-----------------|

Outro  (destroyed)


E-----
H-----
G-----
D--6--
A--6--
E--4--

it sounds right
and i hop it is (the first song i tab my shelf)
Tap to rate this tab
# A B C D E F G H I J K L M N O P Q R S T U V W X Y Z