Song name
# A B C D E F G H I J K L M N O P Q R S T U V W X Y Z

Heinz Rudolf Kunze - Pegasus tab

Help us improve GuitareTab! Take a short survey!
titel:      Pegasus
album:      Halt!
interpret:  Heinz Rudolf Kunze

       by   Henrik Hertel   henland@nexgo.de


Well, this is a song of Heinz R. Kunzes new album , it is not too difficult
you get the feeling by listening to it.


standard-tuning: EADGBe

Use your thumb for the Fis-Bass at "D".

Intro:

   E           D            G
e-----------------------------------
B-------0------------3----------3---
G----------1-0----2-----2-0---0-----
D----2------------------------------
A-----------------------------------
E--0-----------2------------3-------

   E           D            G
e-----------------------------------
B-------0------------3----------3---
G----------1-0----2-----2-0---0-----
D----2------------------------------
A-----------------------------------
E--0-----------2------------3-------


For other tabs look at
http://home.nexgo.de/henland/GuitarMeadow.html


Corrections, questions, comments or just talk 
about Heinz Rudolf Kunze, Echt or John Lennon or the Beatles or you got some good tabs of them
than E-mail me    

henland@nexgo.de
Related for Pegasus tab