Guitaretab - guitar tabs
Song name
# A B C D E F G H I J K L M N O P Q R S T U V W X Y Z

Heir Apparent - Keeper Of The Reign tab

Heir Apparent - Keeper of the Reign Into
Tabbed by Hypocrite

E||---------------0-----------|-----------0----3--0-----|
B||---------0--------0--------|--------0-------0--0-----|
G||*-----0-----0--------0-----|-----0----------------0--|
D||*--------------------------|-------------------------|
A||---------------------------|--3----------------------|
E||---0--------------------0--|-------------------------|


[ Tab from: http://www.guitaretab.com/h/heir-apparent/117276.html ]
---------------5--0--------|--------3--0----------------|
------------0--------0-----|--------0--0-------5/8-5~~--|
---------0--------------0--|-----0--------4/7-----------|
------4--------------------|----------------------------|
--/5-----------------------|--2-------------------------|
---------------------------|----------------------------|


     
--------------0-----------|--------0--------------------|
--------0--------0--------|------------0-----3---0------|
-----0-----0--------0-----|-----0-----(0)-------(0)-----|
--------------------------|-----------------------------|
--------------------------|--3--------------------------|
--0--------------------0--|-----------------------------|

         
---------------5--0--------|--------3--0----------------||
------------0--------0-----|--------0--0----------------||
---------0--------------0--|-----0---------------------*||
------4--------------------|--------------4-2-0--------*||
--/5-----------------------|--2-----------------2-0-----||
---------------------------|------------------------2---||