Song name
# A B C D E F G H I J K L M N O P Q R S T U V W X Y Z

Heiruspecs - Get Up tab

-------------------------------------------------------------------------------
			     GET UP - Heiruspecs
-------------------------------------------------------------------------------
Tabbed by:NorthStarRock

Tuning:EADGBe (standard E)

The is the riff Josh plays throughout the entire song, with a variation being 
played at some points.

main riff:
e|---------------------------------------------------------------------------|
B|---------------------------------------------------------------------------|
G|---------------------------------------------------------------------------|
D|------5-5-4-----------5-5-4------------------------------------------------|
A|--7---------5---5-3---------5/6--------------------------------------------|
E|--0------------------------------------------------------------------------|

variation:
e|-----------------------------------------------------------------------------|
B|-----------------------------------------------------------------------------|
G|-----------------------------------------------------------------------------|
D|------5-5-4-----------5-5-4-12\10\9------------------------------------------|
A|--7---------5---5-3----------------------------------------------------------|
E|--0--------------------------------------------------------------------------|


| /  slide up
| \  slide down
| h  hammer-on
| p  pull-off
| ~  vibrato
| +  harmonic
| x  Mute note
===============================================================================
Tap to rate this tab
# A B C D E F G H I J K L M N O P Q R S T U V W X Y Z