Song name
# A B C D E F G H I J K L M N O P Q R S T U V W X Y Z

Heiruspecs - Small Steps tab

Heiruspecs
Small Steps

By: Seth H.


intro

e|---------------------------------------------------------------------------|
B|-------------10------------------------------------------------------------|
G|-------10---------------12--10------10--12------------------------9--------|
D|--12----------------------------12----------10---------------10-------12---|
A|---------------------------------------------------------12----------------|
E|---------------------------------------------------------------------------|



e|----------------------------------------------------------------------------|
B|----------------------------------------------------------------------------|
G|----------------------------------------------------------------------------|
D|-10-------------------------------------------------------------------------|
A|----12--12/13--12--8--------------------------------------------------------|
E|----------------------------------------------------------------------------|

e|-------------8--10--13-15-13-15-15/17/15-------------------------------------|
B|----------10-----------------------------13-------13-10-10-10----------10----|
G|------10------------------------------------------------------12-10-12-------|
D|--12-------------------------------------------------------------------------|
A|-----------------------------------------------------------------------------|
E|-----------------------------------------------------------------------------|

e|---------------------------------------------------------------------------|
B|---10-11---10--------------------------------------------------------------|
G|12------------10-----------------------------------------------------------|
D|-----------------12--------------------------------------------------------|
A|---------------------------------------------------------------------------|
E|---------------------------------------------------------------------------|


chorus

e|---------------------------------------------------------------------------|
B|--------5--------------5------------5-----------3-----------3--------------|
G|---------------------------------------------------------------------------|
D|-----3--------------3-----------3------------3----------3------------------|
A|--5--------------3------------0------------1----------3--------------------|
E|---------------------------------------------------------------------------|
Tap to rate this tab
# A B C D E F G H I J K L M N O P Q R S T U V W X Y Z