Song name
# A B C D E F G H I J K L M N O P Q R S T U V W X Y Z

Heitor Pereira Doug Smith - Dueling tab

E is tuned down to D (one step)   http://www.youtube.com/watch?v=7s13bgbFA34
A is left the same                The link is the official soundtrack. If it
D is left the same                does not work, just type in dueling guitars
G is tuned up to A (one step)     on youtube.
B is tuned down to A (one step)
e is tuned down to d (one step    (Solo version)


d -|-*12---*5---*12---*7----------|
A -|-*12---*5---*12---*7----------|
A -|-*12---*5---*12---*7----------|
D -|-*12---*5---*12---*7----------|
A -|------------------------------|
D -|------------------------------|
*slap the harmonics that have *. it might be hard to slap 5 and 7th fret without plugged 
so just strum them if you want.

d -|--------------+12--+12--------------------+12----+12--|
A -|------------------------------------------------------|
A -|-----------+12---+12--------------------+12---+12-----|
D -|-2/4-----+12---+12------5p4--2-0--2/4--+12---+12------|
A -|-------+12---+12----------------------+12---+12-------|
D -|------------------------------------------------------|

d -|--------------------------------*12-------------------|
A -|--------------------------------*12-------------------|
A -|--------------------------------*12-------------------|
D -|--5\4--2--0---------------------*12-------------------|
A -|------------------------------------------------------|
D -|-------------7/9-/------------------------------------|
                 *tap on 7 with middle finger, then slide up.

d -|--5-7-7-5-7----5-7-7-5-7---------------------------------------|
A -|--5-5-5-5-5----5-5-5-5-5---------------------------------------|
A -|--0-------0----0-------0-0---------------0--0----0---0-----0---|
D -|--0-------0----0-------0-0-------------2--0--------------0-----|
A -|-----------------------------------4-5-------2h4---2---0-------|
D -|---------------------------------------------------------------|

d -|--------------------------------------------------------------|
A -|---5/7~---5~---------------------5----------------------------|
A -|---0------0---mute----------------0---------------------------|
D -|----------0------------2-4-4-2-4-----4-2p0--------------------|
A -|----------0--------------------5-------0----------------------|
D -|-------------------------------0------------------------------|
(soft)

d -|------------------------------------------------------|
A -|-*12----*12-----*12-----------*12---------------------|
A -|-*12----*12-----*12-----------*12---------------------|
D -|--2h4----4p2-----h4------------2p0--------------------|
A -|-*12----*12-----*12-----------*12---------------------|
D -|------------------------------------------------------|
      *slap while holding the notes.

d -|----------------------------------------------------|
A -|-----------------------5----------------------------|
A -|-------------------------0--------------------------|
D -|-------------2-4-4-2-4-----4-2p0----------0--2------|
A -|---------------------5-------0----------------------|
D -|---------------------0------------------------------|

d -|----7-----5-----4-----2-----0------------------------|
A -|----7-----5-----4-----2-----0------------------------|
A -|----7-----5-----4-----2-----0------------------------|
D -|----7-----5-----4-----2-----0------------------------|
A -|----7-----5-----4-----2-----0------------------------|
D -|-0--7--0--5--0--4--0--2--0--0------------------------|

d- |-------*12----*7-----*5-----*7--*5--------------------|
A -|-------*12----*7-----*5-----*7--*5--------------------|
A -|-------*12----*7-----*5-----*7--*5--------------------|
D -|----7--*12--5-*7---4-*5---2-*7--*5--------------------|x2
A -|----7-------5------4------2---------------------------|
D -|--0-7-------5------4------2---------------------------|
(slow)

d -|----7-----5-----4-----2-----0------------------------|
A -|----7-----5-----4-----2-----0------------------------|
A -|----7-----5-----4-----2-----0------------------------|
D -|----7-----5-----4-----2-----0------------------------|
A -|----7-----5-----4-----2-----0------------------------|
D -|-0--7--0--5--0--4--0--2--0--0------------------------|

d- |-------*12----*7-----*5-----*7--*5--------------------|
A -|-------*12----*7-----*5-----*7--*5--------------------|
A -|-------*12----*7-----*5-----*7--*5--------------------|
D -|----7--*12--5-*7---4-*5---2-*7--*5--------------------|x5
A -|----7-------5------4------2---------------------------|
D -|--0-7-------5------4------2---------------------------|
(gradually goes faster and repeatedly)

d -|--2/4---0--5p4---2p0-2/4---0--------5p4--2p0------------------------|
A -|--0-----0--0-----0---0-0---0--------0----0---------------+12--------|
A -|--0-----0--0-----0---0-0---0--------0----0---0h2~------+12-+12------|
D -|--2/4---4--4-----2p0-2/4---4--------4p4--2p0-0---0---+12----+12-0---|
A -|---------------------------------------------0h2~0-+12----------0---|
D -|------0------------------0-----------------------0--------------0---|
*do the strum pattern of the piece.

d -|----0-0-0||------*12----*7---*5----*7-*5-||
A -|----4-5-0||------*12----*7---*5----*7-*5-||
A -|----4-5-0||.-----*12----*7---*5----*7-*5.||
D -|----0-0-0||.---7-*12--5-*7-4-*5--2-*7-*5.||
A -|----4-5-0||----7------5----4-----2-------||
D -|----0-0--||-0--7------5----4-----2-------||

d -|-----------0----------------0---------------------0--------|
A -|-----------0----------------0---------------------0--------|
A -|-----------0----------------0---------------------0--------|
D -|----2/4----4--5p4-2p0-2/4---4----5p4--2p0--5/7~---7--------|
A -|-----------------------------------------------------------|
D -|---------0----------------0---------------------0----------|

d -|--0-/-0-/-0-/-0------0----0----0----0-----0-0--X-X--------|
A -|--2-/-4-/-5-/-7------5----4----2----0-----0-0--X-X--------|
A -|--2-/-4-/-5-/-7------5----4----2----0-------0--X-X--------|
D -|--0-/-0-/-0-/-0------0----0----0----0-------0--X-X--------|
A -|--2-/-4-/-5-/-7------5----4----2----0-------0--X-X--------|
D -|--0-/-0-/-0-/-0------0----0----0----0----------X-X--------|

        ^   ^    ^   ^        ^
d -|--2-4-4-2-4--2-2-0--|---0-2-0--|
A -|--0-0-0-0-0--0-0-0--|---0-0-0--|
A -|--0-0-0-0-0--0-0-0--|---0-0-0--|
D -|--2-4-4-2-4--2-2-0--|x3-0-2-0--|
A -|--0-0-0-0-0--0-0-0--|---0-0-0--|
D -|--0-0-0-0-0--0-0-0-0|----------|
      (strumming)(^ is up stroke)

d -|------7-----5-----4-----2--0-0----7-----5-----4-----2--0-0-----|
A -|------7---0-5---0-4---0-2--0-0----7---0-5---0-4---0-2--0-0-----|
A -|------7---0-5---0-4---0-2--0-0----7---0-5---0-4---0-2--0-0-----|
D -|------7---0-5---0-4---0-2----0----7---0-5---0-4---0-2----0-----|
A -|------7---0-5---0-4---0-2----0----7---0-5---0-4---0-2----0-----|
D -|--0---7-----5-----4-----2----0-0--7-----5-----4-----2----0-----|


d -|---------*12---*7---*5---*7--*5-----*12---*7---*5-------0--X-----|
A -|---------*12---*7---*5---*7--*5-----*12---*7---*5---*12-0--X-----|
A -|---------*12---*7---*5---*7--*5-----*12---*7---*5---*12-0--X-----|
D -|------7--*12-5-*7-4-*5-2-*7--*5---7-*12-5-*7-4-*5-2-*12-4--------|X(mute)
A -|------7------5----4----2----------7-----5----4----2-*12-0--X-----|
D -|-0----7------5----4----2----------7-----5----4----2--------X-----|

ill make a duet version if someone wants me to.
Tap to rate this tab
 
# A B C D E F G H I J K L M N O P Q R S T U V W X Y Z