Song name
# A B C D E F G H I J K L M N O P Q R S T U V W X Y Z

Hekan Hellstrom - Mitt Gullbergs Kaj Paradis tab

Made by Tommy S


Riff 1

e----------------------------------------
B----------------------------------------
G--33333----33333----55555----55555------
D-------353------353------575------575--- 
A----------------------------------------
E----------------------------------------

Riff 2

e----------------------------------------
B----------------------------------------
G--77777----77777----99999-------------9-
D-------797------797-------9119-9-11-12-- 
A----------------------------------------
E----------------------------------------

Riff 3

e----------------------------------------
B----------------------------------------
G-7--------------------------------------
D----9-7-9-7--5--7-5-9-7----------------- 
A---------------------------------------- This part plays the "trumpet"
E---------------------------------------- 

Riff 4

e----------------------------------------
B----------------------------------------
G----------------------------------------
D----------11-14-14-(12)-(10)------------ 
A-10-12-14-------------------------------This part to is played with "trumpet"
E----------------------------------------

Order Riff 1 x1
      Riff 2 x1
      Riff 3 x1
      Riff 4 x1 With parameters
      Riff 3 x1
      Riff 4 x1 Without parameters



This is not the real version in anyway but it ok!



Den här låten är grymt bra och den versionen av introt kan man lira man vill
ha en helt duglig version av låten utan att behöva stämma om sin gitarr eller
köpa en trumpet!! Obs man måste spela fort!

Håkan o Timo o resten av bandet e kungar!!!
Tap to rate this tab
# A B C D E F G H I J K L M N O P Q R S T U V W X Y Z