Song name
# A B C D E F G H I J K L M N O P Q R S T U V W X Y Z

Heldmaschine - Weiter tab

Weiter! by Heldmaschine

This is the first time, I figured out a complete song just be hearing. So please 
don't be too hard.
I play it in:

Drop-D

You can also play it in Drop C. I think, the original is in Drop C. Nevermind.

Intro:
e|--------------|
B|--------------|
G|--------------|
D|-888-10-8-7-5-|
A|-888-10-8-7-5-|
D|-888-10-8-7-5-|

Riff 1
e|---------------------------------|  \
B|---------------------------------|   \
G|---------------------------------|   t
D|-5-5-5-5-5-5-5-5-|-5-5-5-5--3-3-3|   w
A|-5-5-5-5-5-5-5-5-|-5-5-5-5--3-3-3|   o
D|-5-5-5-5-5-5-5-5-|-5-5-5-5--3-3-3|
                                       t
e|----------------------------------|  i
B|----------------------------------|  m     
G|----------------------------------|  e    Here I'm not sure. In fact I play it by
D|-5-5-5-5-5-5-5-5-|-8-8-8-8-10-8-7-|  s    feeling and I think it's like this, but
A|-5-5-5-5-5-5-5-5-|-8-8-8-8-10-8-7-|  /    it could also be the intro riff. Just play
D|-5-5-5-5-5-5-5-5-|-8-8-8-8-10-8-7-| /     to the song and you will figure it out.

then this:

Riff2
e|--------------------------|  
B|--------------------------|  
G|--------------------------|  
D|-1-1-1-1-1-1-1-1-3-3-3-3-5|  The last chord is very short. It's just the last beat.
A|-1-1-1-1-1-1-1-1-3-3-3-3-5|
D|-1-1-1-1-1-1-1-1-3-3-3-3-5|

Vers:
I think there's no guitar. Just some strange sounds you could do with a guitar...maybe

Chorus:

e|--------------|
B|--------------|
G|--------------|
D|-888-10-8-7-5-|
A|-888-10-8-7-5-|
D|-888-10-8-7-5-|

e|-----------------|-----------------|\
B|-----------------|-----------------| \
G|-----------------|-----------------|  four
D|-5-5-5-5-8-8-8-8-|-0-0-0-0-3-3-3-3-|  times
A|-5-5-5-5-8-8-8-8-|-0-0-0-0-3-3-3-3-| /
D|-5-5-5-5-8-8-8-8-|-0-0-0-0-3-3-3-3-|/


Riff 1 - 1x
Riff 2 - 1x


Vers:
Again no guitars and strange sounds


Chorus - 4x

Then there's a very electronic part. I think, there's a guitar in the beginning, 
but it's not very loud and I'm not sure about the chords. If I play, I play this:

e|----------------------|\  
B|----------------------| \ 
G|----------------------|  four
D|----------------------|  times
A|----55----55----55----| /
D|----55----55----55----|/



Chorus - 4x

Riff 1 - 2x

End:
e|-----------------|-----------|  
B|-----------------|-----------|  
G|-----------------|-----------|  
D|-5-5-5-5-5-5-5-5-|-5-5-5-5-8-|
A|-5-5-5-5-5-5-5-5-|-5-5-5-5-8-|
D|-5-5-5-5-5-5-5-5-|-5-5-5-5-8-|


http://www.heldmaschine.de/
Tap to rate this tab
# A B C D E F G H I J K L M N O P Q R S T U V W X Y Z