Guitaretab - guitar tabs
Song name
# A B C D E F G H I J K L M N O P Q R S T U V W X Y Z

Helene Segara - Encore Une Fois tab

Highlighted       Show chord diagrams
-------------------------------------------------------------------------
ENCORE UNE FOIS – Hélène Ségara
-------------------------------------------------------------------------
Tabbed by: Kengus

Standard tuning
Capo on first fret!

INTRO
   Bm                     Em7              A                  Bm
e|-----------------------------------------------------------------------|
B|---------3---2--------------0---3---2--------0---3---2--------------3--|
G|-----4------------------------0---0---0--------2---2---2--------4------|
D|---4---4---4---4----------2----------------2------------------4---4----|
A|-2---------------------------------------0----------------0-2----------|
E|------------------2h3p2-0----------------------------------------------|

e|--------|
B|---2----|
G|--------| repeat this x2 in the verse
D|-4---4--|
A|--------|
E|--------|

VERSE1 (same pattern as in intro)
Bm                                      Em7
   J'ai jamais vu d'amour fragile, j'ai toujours donné tout
A                                          Bm
Toute seule au bout de moi, j't'envoie ces quelques mots
Bm                                    Em7
   Moi je suis celle qui s'est perdue,    contre ta peau
      A                                         Bm
Quand on s'cachait près des bateaux, pour mettr' nos corps à nu

PRE-CHORUS
   Em7                                           A
Un jour y'a comme ça des gnes qui passent, c'est la vie qui grandit
     F7
On s'comprend pas toujours soi-même, et un jour, on aime

CHORUS
Bm                                    Em7
Oh non non non, on s'oublie pas comme ça
A                                                  Bm
Tu n'le sais pas, mais j'garde en moi des bouts de toi
                                     Em7
Oh non non non, on n'oublie pas tout ça
      A                                                     Bm
C'est notre histoire d'amour, j'voudrai la vivre encore une fois
[ Tab from: http://www.guitaretab.com/h/helene-segara/116759.html ]
VERSE2 (picking same as verse1)
Bm                                   Em7
   Et face aux vagues de l'océan, tu m'as tendue la main
       A                               Bm
Pour m'emmener doucement, jusqu'au premier matin
                                    Em7
J'avançais toujours vers toi, comme une étoile qui danse
A                                      Bm
Et le temps a mis ses ailes, pour me voler mon innocence

PRE-CHORUS
   Em7                                         A
Un jour y'a comme ça des gens qui passent, des regards qu'on garde en soi
F7
Des rires qu'on oublie pas, parce qu'un jour, on aime

CHORUS (same as before)
Bm                                    Em7
Oh non non non, on s'oublie pas comme ça
A                                                  Bm
Tu n'le sais pas, mais j'garde en moi des bouts de toi
                                     Em7
Oh non non non, on n'oublie pas tout ça
      A                                                     Bm
C'est notre histoire d'amour, j'voudrai la vivre encore une fois

INTERLUDE(repeat intro)
   Bm                     Em7              A                  Bm
e|-----------------------------------------------------------------------|
B|---------3---2--------------0---3---2--------0---3---2--------------3--|
G|-----4------------------------0---0---0--------2---2---2--------4------|
D|---4---4---4---4----------2----------------2------------------4---4----|
A|-2---------------------------------------0----------------0-2----------|
E|------------------2h3p2-0----------------------------------------------|

e|--------|
B|---2----|
G|--------|
D|-4---4--|
A|--------|
E|--------|

PRE-CHORUS
   Em7                                           A
Un jour y'a comme ça des gnes qui passent, c'est la vie qui grandit
     F7
On s'comprend pas toujours soi-même, et un jour, on aime...

CHORUS
Bm                                    Em7
Oh non non non, on s'oublie pas comme ça
A                                                  Bm
Tu n'le sais pas, mais j'garde en moi des bouts de toi
                                     Em7
Oh non non non, on n'oublie pas tout ça
      A                                                     Bm
C'est notre histoire d'amour, j'voudrai la vivre encore une fois

OUTRO
Bm  Em7  A  Bm

=========================================================================
Comment, rate, appreciate!
Related for Encore Une Fois tab
Advertisement will be closed in 10 seconds