Song name
# A B C D E F G H I J K L M N O P Q R S T U V W X Y Z

Helevorn - Two Voices Surrounding tab

HELEVORN - TWO VOICES SURROUNDING
                From the Album FORTHCOMING DISPLEASURES

www.helevorn.com
www.myspace.com/helevorn

Transcribed by: Biscaine (sandrovizcaino@hotmail.com)

For Questions, Comments, contact me.


Guitar Tuning: C, F, Bb, Eb, G, C

Guitar 1
Riff 1 (x2)
|-----------------------------------------------------------------|
|-----------------------------------------------------------------|
|-----------------------------------------------------------------|
|-7-7-7-7-7-7-7-7-3-3-3-3-3-3-3-3-7-7-7-7-7-7-7-7-5-5-5-5-5-5-5-5-|
|-7-7-7-7-7-7-7-7-3-3-3-3-3-3-3-3-7-7-7-7-7-7-7-7-5-5-5-5-5-5-5-5-|
|-5-5-5-5-5-5-5-5-1-1-1-1-1-1-1-1-5-5-5-5-5-5-5-5-3-3-3-3-3-3-3-3-|


Bass + keys
Riff 2 (verse)

|----------------------------------------------------------------|
|----------------------------------------------------------------|
|-------------------------------------------------3-3-3-3-3-3-3-3|
|-5-5-5-5-5-5-5-5-5-5-5-5-5-5-5-5-3-3-3-3-3-3-3-3----------------|

|----------------------------------------------------------------|
|----------------------------------------------------------------|
|----------------------------------------------------------------|
|-5-5-5-5-5-5-5-5-5-5-5-5-5-5-5-5-3-3-3-3-3-3-3-3-1-1-1-1-1-1-1-1|


Chorus (x2)
|-----------------------------------------------------------------|
|-----------------------------------------------------------------|
|-------------------------------------------------5-5-5-5-5-5-5-5-|
|-7-7-7-7-7-7-7-7-7-7-7-7-7-7-7-7-5-5-5-5-5-5-5-5-5-5-5-5-5-5-5-5-|
|-7-7-7-7-7-7-7-7-7-7-7-7-7-7-7-7-5-5-5-5-5-5-5-5-3-3-3-3-3-3-3-3-|
|-5-5-5-5-5-5-5-5-5-5-5-5-5-5-5-5-3-3-3-3-3-3-3-3-----------------|

|-----------------------------------------------------------------|
|-----------------------------------------------------------------|
|-----------------------------------------------------------------|
|-7-7-7-7-7-7-7-7-7-7-7-7-7-7-7-7-5-5-5-5-5-5-5-5-3-3-3-3-3-3-3-3-|
|-7-7-7-7-7-7-7-7-7-7-7-7-7-7-7-7-5-5-5-5-5-5-5-5-3-3-3-3-3-3-3-3-|
|-5-5-5-5-5-5-5-5-5-5-5-5-5-5-5-5-3-3-3-3-3-3-3-3-1-1-1-1-1-1-1-1-|

Bridge (x6)
|----------------------------------------|
|----------------------------------------|
|----------------------------------------|
|----------------------------------------|
|----------------------------7~~--8~~--3~|
|-5~~------1~~------5~~------------------|

Bridge end
|--------------------------|
|--------------------------|
|------------------------5-|
|-7----5----3----5----3--5-|
|-7----5----3----5----3--3-|
|-5----3----1----3----1----|


RIFF 1 (x2)

RIFF 2 (x2)

RIFF 1 (only guitar)

CHORUS (x2)

Bridge (x6)
|----------------------------------------|
|----------------------------------------|
|----------------------------------------|
|----------------------------------------|
|----------------------------7~~--8~~--3~|
|-5~~------1~~------5~~------------------|

Bridge end
|--------------------------|
|--------------------------|
|------------------------5-|
|-7----5----3----5----3--5-|
|-7----5----3----5----3--3-|
|-5----3----1----3----1----|

|-------------------------------------------|
|-------------------------------------------|
|------------------------------------5------|
|-7--7----5--5----3--3----5--5----3--5--7-7-|
|-7--7----5--5----3--3----5--5----3--3--7-7-|
|-5--5----3--3----1--1----3--3----1-----5-5-|

www.helevorn.com
www.myspace.com/helevorn
Tap to rate this tab
 
# A B C D E F G H I J K L M N O P Q R S T U V W X Y Z