Song name
# A B C D E F G H I J K L M N O P Q R S T U V W X Y Z

Helevorn - Descent tab

HELEVORN - DESCENT
                From the Album FORTHCOMING DISPLEASURES


Transcribed by: Biscaine (sandrovizcaino@hotmail.com)

For Questions, Comments, contact me


Guitar Tuning: C, F, Bb, Eb, G, C

Guitar 1
Riff 1
|---------------------------------5--------|
|-----------------------------------5------|
|----------------------------7--------7----|
|-7-------7-----7-----2------7-------------|
|-7-------8-----7-----2------5-------------|
|-5-------5-----5-----0------5-------------|

|------------------------------------------|
|------------------------------------------|
|----------------------------7-------------|
|-7-------7-----7-----9------7-------------|
|-7-------8-----7-----7------5-------------|
|-5-------5-----5-----7------5-------------|

Riff 2
|------------------------------------------------------|
|------------------------------------------------------|
|---------5--------------------------------------------|
|-2-------5-----5--------2--------3--3---3--3--3---3---|
|-2-------3-----5--------2--------3--3---3--3--3---3---|
|-0-------------3--------0--------1--1---1--1--1---1---|

|------------------------------------------------------|
|------------------------------------------------------|
|---------5--------------------------------------------|
|-2-------5-----5--------7--------3--3---3--3--3---3---|
|-2-------3-----5--------7--------3--3---3--3--3---3---|
|-0-------------3--------5--------1--1---1--1--1---1---|


Bridge
|----------------|
|----------------|
|----------------|
|-2--2--2--2--2--|
|-2--2--2--2--2--|
|-0--0--0--0--0--|
 PM ...........
 
Chorus
|--------------------------------------------------------------------------|
|--------------------------------------------------------------------------|
|--------------------------------------------------------------------------|
|-2---------9---9---7------------5---------9---9---10-------7-----2-2-2-2--|
|-2---------9---9---7------------5---------9---9---10-------7-----2-2-2-2--|
|-0---------7---7---5------7-----3---------7---7---8--------5-----0-0-0-0--|


RIFF 1 (x2)

RIFF 2 (x2)

CHORUS



Riff 3
Guitar 1

|-12~~---------10~~-------------|
|-------------------------12~~--|
|-------------------------------|
|-------------------------------|
|-------------------------------|
|-------------------------------|


Bridge 2
|----------------|
|----------------|
|----------------|
|-3-----3-----2--|
|-3-----3-----2--|
|-1-----1-----0--|


RIFF 2 (x2)

CHORUS

final Riff
|---------------------------------------------------------------|
|---------------------------------------------------------------|
|-----------------5-5-5-5---------------------------------------|
|-2-2-2-2-2-2-2-2-5-5-5-5-5-5-5-5-2-2-2-2-2-2-2-2-3---3---3---3-|
|-2-2-2-2-2-2-2-2-3-3-3-3-5-5-5-5-2-2-2-2-2-2-2-2-3---3---3---3-|
|-0-0-0-0-0-0-0-0---------3-3-3-3-0-0-0-0-0-0-0-0-1---1---1---1-|
 PM ...............................................

|---------------------------------------------------------------|
|---------------------------------------------------------------|
|-----------------5-5-5-5---------------------------------------|
|-2-2-2-2-2-2-2-2-5-5-5-5-5-5-5-5-7-7-7-7-7-7-7-7-3---3---3---3-|
|-2-2-2-2-2-2-2-2-3-3-3-3-5-5-5-5-7-7-7-7-7-7-7-7-3---3---3---3-|
|-0-0-0-0-0-0-0-0---------3-3-3-3-5-5-5-5-5-5-5-5-1---1---1---1-|
 PM ...............................................

www.helevorn.com
www.myspace.com/helevorn
Tap to rate this tab
 
# A B C D E F G H I J K L M N O P Q R S T U V W X Y Z