Song name
# A B C D E F G H I J K L M N O P Q R S T U V W X Y Z

Helium - I Am A Witch tab

tuning: CGCFAd (in live versions it's in drop D - tab's the same, obvs)

b = bend
/ = slide

main riff

d-------0------------------0----------0-----|
A-----6---6-------------10---10----14--(0)--|
F---7-------7---7/12-12---------14----------|
C---0--------(0)----------------------------|
G-------------------------------------------|
C-------------------------------------------|

d-------0------------------------|
A-----6---6----------------------|
F---7-------7---7--------0-------|
C---0---------0--(0)---8--(8)-7--|
G--------------------7--------5--|
C--------------------------------|

chorus ("and i'll never leave you alone...")

d-------------------------------------|
A-------------------------------------|
F-------0-------0-------0-------0-----|
C-----3--(3)--5--(5)--7---7---7--(7)--|   x4
G---1-------3-------8-------7---------|
C-------------------------------------|

post-chorus

d-------------------------------|
A-------------------------------|
F-------------------------------|
C-----------------------(3)(3)--|   x4
G---7b-----7b---7b---7b--5--5---|
C---8--8-8-8--8-8--8-8---0--0---|
                            *
after 1st chorus - no * the 4th time

ending

d---------------------------------|
A---------------------------------|
F---------------------------(0)---|
C------------------------333-5-5--|
G---7b-----7b---7b---7b--555-5-5--|
C---8--8-8-8--8-8--8-8---000-0-0--|

d-------------------------------------------------|
A-------------------------------------------------|
F-------------------------------------------------|
C----------------------(3)------------------------|
G---7b-----7b---7b----7-5------------5-5/3---3-0--|
C---8--8-8-8--8-8---8-8-0-------------------------|
Tap to rate this tab
# A B C D E F G H I J K L M N O P Q R S T U V W X Y Z